  0
SECTION
  2
HEADER
  9
$ACADVER
  1
AC1015
  9
$ACADMAINTVER
 70
     6
  9
$DWGCODEPAGE
  3
ANSI_1252
  9
$INSBASE
 10
0.0
 20
0.0
 30
0.0
  9
$EXTMIN
 10
0.0
 20
0.0
 30
0.0
  9
$EXTMAX
 10
745.0
 20
630.0
 30
0.0
  9
$LIMMIN
 10
0.0
 20
0.0
  9
$LIMMAX
 10
745.0
 20
630.0
  9
$ORTHOMODE
 70
     0
  9
$REGENMODE
 70
     1
  9
$FILLMODE
 70
     1
  9
$QTEXTMODE
 70
     0
  9
$MIRRTEXT
 70
     1
  9
$LTSCALE
 40
1.0
  9
$ATTMODE
 70
     1
  9
$TEXTSIZE
 40
3.5
  9
$TRACEWID
 40
1.0
  9
$TEXTSTYLE
  7
Standard
  9
$CLAYER
  8
0
  9
$CELTYPE
  6
ByLayer
  9
$CECOLOR
 62
   256
  9
$CELTSCALE
 40
1.0
  9
$DISPSILH
 70
     0
  9
$DIMSCALE
 40
1.0
  9
$DIMASZ
 40
3.302
  9
$DIMEXO
 40
1.0
  9
$DIMDLI
 40
3.75
  9
$DIMRND
 40
0.0
  9
$DIMDLE
 40
0.0
  9
$DIMEXE
 40
1.0
  9
$DIMTP
 40
0.0
  9
$DIMTM
 40
0.0
  9
$DIMTXT
 40
3.5
  9
$DIMCEN
 40
2.5
  9
$DIMTSZ
 40
0.0
  9
$DIMTOL
 70
     0
  9
$DIMLIM
 70
     0
  9
$DIMTIH
 70
     1
  9
$DIMTOH
 70
     1
  9
$DIMSE1
 70
     0
  9
$DIMSE2
 70
     0
  9
$DIMTAD
 70
     1
  9
$DIMZIN
 70
     0
  9
$DIMBLK
  1

  9
$DIMASO
 70
     1
  9
$DIMSHO
 70
     1
  9
$DIMPOST
  1

  9
$DIMAPOST
  1

  9
$DIMALT
 70
     0
  9
$DIMALTD
 70
     3
  9
$DIMALTF
 40
0.0393700787
  9
$DIMLFAC
 40
1.0
  9
$DIMTOFL
 70
     1
  9
$DIMTVP
 40
0.0
  9
$DIMTIX
 70
     0
  9
$DIMSOXD
 70
     0
  9
$DIMSAH
 70
     0
  9
$DIMBLK1
  1

  9
$DIMBLK2
  1

  9
$DIMSTYLE
  2
ISO-25
  9
$DIMCLRD
 70
     0
  9
$DIMCLRE
 70
     0
  9
$DIMCLRT
 70
     0
  9
$DIMTFAC
 40
1.0
  9
$DIMGAP
 40
1.524
  9
$DIMJUST
 70
     0
  9
$DIMSD1
 70
     0
  9
$DIMSD2
 70
     0
  9
$DIMTOLJ
 70
     0
  9
$DIMTZIN
 70
     0
  9
$DIMALTZ
 70
     0
  9
$DIMALTTZ
 70
     0
  9
$DIMUPT
 70
     0
  9
$DIMDEC
 70
     2
  9
$DIMTDEC
 70
     2
  9
$DIMALTU
 70
     2
  9
$DIMALTTD
 70
     3
  9
$DIMTXSTY
  7
Standard
  9
$DIMAUNIT
 70
     0
  9
$DIMADEC
 70
     2
  9
$DIMALTRND
 40
0.0
  9
$DIMAZIN
 70
     0
  9
$DIMDSEP
 70
    44
  9
$DIMATFIT
 70
     3
  9
$DIMFRAC
 70
     0
  9
$DIMLDRBLK
  1

  9
$DIMLUNIT
 70
     2
  9
$DIMLWD
 70
    -2
  9
$DIMLWE
 70
    -2
  9
$DIMTMOVE
 70
     0
  9
$LUNITS
 70
     2
  9
$LUPREC
 70
     2
  9
$SKETCHINC
 40
1.0
  9
$FILLETRAD
 40
10.0
  9
$AUNITS
 70
     0
  9
$AUPREC
 70
     2
  9
$MENU
  1
.
  9
$ELEVATION
 40
0.0
  9
$PELEVATION
 40
0.0
  9
$THICKNESS
 40
0.0
  9
$LIMCHECK
 70
     0
  9
$CHAMFERA
 40
10.0
  9
$CHAMFERB
 40
10.0
  9
$CHAMFERC
 40
20.0
  9
$CHAMFERD
 40
0.0
  9
$SKPOLY
 70
     0
  9
$TDCREATE
 40
2456659.901299329
  9
$TDUCREATE
 40
2456659.859632662
  9
$TDUPDATE
 40
2456659.901302211
  9
$TDUUPDATE
 40
2456659.859635544
  9
$TDINDWG
 40
0.0000000116
  9
$TDUSRTIMER
 40
0.0000000116
  9
$USRTIMER
 70
     1
  9
$ANGBASE
 50
0.0
  9
$ANGDIR
 70
     0
  9
$PDMODE
 70
     0
  9
$PDSIZE
 40
-1.0
  9
$PLINEWID
 40
0.0
  9
$SPLFRAME
 70
     0
  9
$SPLINETYPE
 70
     6
  9
$SPLINESEGS
 70
     8
  9
$HANDSEED
  5
35E
  9
$SURFTAB1
 70
     6
  9
$SURFTAB2
 70
     6
  9
$SURFTYPE
 70
     6
  9
$SURFU
 70
     6
  9
$SURFV
 70
     6
  9
$UCSBASE
  2

  9
$UCSNAME
  2

  9
$UCSORG
 10
0.0
 20
0.0
 30
0.0
  9
$UCSXDIR
 10
1.0
 20
0.0
 30
0.0
  9
$UCSYDIR
 10
0.0
 20
1.0
 30
0.0
  9
$UCSORTHOREF
  2

  9
$UCSORTHOVIEW
 70
     0
  9
$UCSORGTOP
 10
0.0
 20
0.0
 30
0.0
  9
$UCSORGBOTTOM
 10
0.0
 20
0.0
 30
0.0
  9
$UCSORGLEFT
 10
0.0
 20
0.0
 30
0.0
  9
$UCSORGRIGHT
 10
0.0
 20
0.0
 30
0.0
  9
$UCSORGFRONT
 10
0.0
 20
0.0
 30
0.0
  9
$UCSORGBACK
 10
0.0
 20
0.0
 30
0.0
  9
$PUCSBASE
  2

  9
$PUCSNAME
  2

  9
$PUCSORG
 10
0.0
 20
0.0
 30
0.0
  9
$PUCSXDIR
 10
1.0
 20
0.0
 30
0.0
  9
$PUCSYDIR
 10
0.0
 20
1.0
 30
0.0
  9
$PUCSORTHOREF
  2

  9
$PUCSORTHOVIEW
 70
     0
  9
$PUCSORGTOP
 10
0.0
 20
0.0
 30
0.0
  9
$PUCSORGBOTTOM
 10
0.0
 20
0.0
 30
0.0
  9
$PUCSORGLEFT
 10
0.0
 20
0.0
 30
0.0
  9
$PUCSORGRIGHT
 10
0.0
 20
0.0
 30
0.0
  9
$PUCSORGFRONT
 10
0.0
 20
0.0
 30
0.0
  9
$PUCSORGBACK
 10
0.0
 20
0.0
 30
0.0
  9
$USERI1
 70
     0
  9
$USERI2
 70
     0
  9
$USERI3
 70
     0
  9
$USERI4
 70
     0
  9
$USERI5
 70
     0
  9
$USERR1
 40
0.0
  9
$USERR2
 40
0.0
  9
$USERR3
 40
0.0
  9
$USERR4
 40
0.0
  9
$USERR5
 40
0.0
  9
$WORLDVIEW
 70
     1
  9
$SHADEDGE
 70
     3
  9
$SHADEDIF
 70
    70
  9
$TILEMODE
 70
     1
  9
$MAXACTVP
 70
    64
  9
$PINSBASE
 10
0.0
 20
0.0
 30
0.0
  9
$PLIMCHECK
 70
     0
  9
$PEXTMIN
 10
1.0000000000E+20
 20
1.0000000000E+20
 30
1.0000000000E+20
  9
$PEXTMAX
 10
-1.0000000000E+20
 20
-1.0000000000E+20
 30
-1.0000000000E+20
  9
$PLIMMIN
 10
0.0
 20
0.0
  9
$PLIMMAX
 10
420.0
 20
297.0
  9
$UNITMODE
 70
     0
  9
$VISRETAIN
 70
     1
  9
$PLINEGEN
 70
     0
  9
$PSLTSCALE
 70
     1
  9
$TREEDEPTH
 70
  3020
  9
$CMLSTYLE
  2
Standard
  9
$CMLJUST
 70
     0
  9
$CMLSCALE
 40
20.0
  9
$PROXYGRAPHICS
 70
     1
  9
$MEASUREMENT
 70
     1
  9
$CELWEIGHT
370
    -1
  9
$ENDCAPS
280
     0
  9
$JOINSTYLE
280
     0
  9
$LWDISPLAY
290
     1
  9
$INSUNITS
 70
     4
  9
$HYPERLINKBASE
  1

  9
$STYLESHEET
  1

  9
$XEDIT
290
     1
  9
$CEPSNTYPE
380
     0
  9
$PSTYLEMODE
290
     1
  9
$FINGERPRINTGUID
  2
{A5FBD2A0-1062-4206-AA68-C5DEF0C38001}
  9
$VERSIONGUID
  2
{FAEB1C32-E019-11D5-929B-00C0DF256EC4}
  9
$EXTNAMES
290
     1
  9
$PSVPSCALE
 40
0.0
  9
$OLESTARTUP
290
     0
  0
ENDSEC
  0
SECTION
  2
CLASSES
  0
CLASS
  1
ACDBDICTIONARYWDFLT
  2
AcDbDictionaryWithDefault
  3
ObjectDBX Classes
 90
        0
280
     0
281
     0
  0
CLASS
  1
VISUALSTYLE
  2
AcDbVisualStyle
  3
ObjectDBX Classes
 90
     4095
280
     0
281
     0
  0
CLASS
  1
MATERIAL
  2
AcDbMaterial
  3
ObjectDBX Classes
 90
     1153
280
     0
281
     0
  0
CLASS
  1
ACDBPLACEHOLDER
  2
AcDbPlaceHolder
  3
ObjectDBX Classes
 90
        0
280
     0
281
     0
  0
CLASS
  1
LAYOUT
  2
AcDbLayout
  3
ObjectDBX Classes
 90
        0
280
     0
281
     0
  0
ENDSEC
  0
SECTION
  2
TABLES
  0
TABLE
  2
VPORT
  5
8
330
0
100
AcDbSymbolTable
 70
     1
  0
VPORT
  5
29
330
8
100
AcDbSymbolTableRecord
100
AcDbViewportTableRecord
  2
*Active
 70
     0
 10
0.0
 20
0.0
 11
1.0
 21
1.0
 12
372.5
 22
315.0
 13
0.0
 23
0.0
 14
10.0
 24
10.0
 15
10.0
 25
10.0
 16
0.0
 26
0.0
 36
1.0
 17
0.0
 27
0.0
 37
0.0
 40
630.0
 41
1.1825396825
 42
50.0
 43
0.0
 44
0.0
 50
0.0
 51
0.0
 71
     0
 72
  2000
 73
     1
 74
     3
 75
     0
 76
     0
 77
     0
 78
     0
281
     0
 65
     1
110
0.0
120
0.0
130
0.0
111
1.0
121
0.0
131
0.0
112
0.0
122
1.0
132
0.0
 79
     0
146
0.0
  0
ENDTAB
  0
TABLE
  2
LTYPE
  5
5
330
0
100
AcDbSymbolTable
 70
     6
  0
LTYPE
  5
14
330
5
100
AcDbSymbolTableRecord
100
AcDbLinetypeTableRecord
  2
ByBlock
 70
     0
  3

 72
    65
 73
     0
 40
0.0
  0
LTYPE
  5
15
330
5
100
AcDbSymbolTableRecord
100
AcDbLinetypeTableRecord
  2
ByLayer
 70
     0
  3

 72
    65
 73
     0
 40
0.0
  0
LTYPE
  5
16
330
5
100
AcDbSymbolTableRecord
100
AcDbLinetypeTableRecord
  2
Continuous
 70
     0
  3
Solid line
 72
    65
 73
     0
 40
0.0
  0
LTYPE
  5
3F
330
5
100
AcDbSymbolTableRecord
100
AcDbLinetypeTableRecord
  2
HIDDEN
 70
     0
  3
Hidden __ __ __ __ __ __ __ __ __ __ __ __ __ __
 72
    65
 73
     2
 40
1.905
 49
1.27
 74
     0
 49
-0.635
 74
     0
  0
LTYPE
  5
40
330
5
100
AcDbSymbolTableRecord
100
AcDbLinetypeTableRecord
  2
PHANTOM
 70
     0
  3
Phantom ______  __  __  ______  __  __  ______
 72
    65
 73
     6
 40
12.7
 49
6.35
 74
     0
 49
-1.27
 74
     0
 49
1.27
 74
     0
 49
-1.27
 74
     0
 49
1.27
 74
     0
 49
-1.27
 74
     0
  0
LTYPE
  5
41
330
5
100
AcDbSymbolTableRecord
100
AcDbLinetypeTableRecord
  2
CENTER
 70
     0
  3
Center ____ _ ____ _ ____ _ ____ _ ____ _ ____
 72
    65
 73
     4
 40
10.16
 49
6.35
 74
     0
 49
-1.27
 74
     0
 49
1.27
 74
     0
 49
-1.27
 74
     0
  0
LTYPE
  5
42
330
5
100
AcDbSymbolTableRecord
100
AcDbLinetypeTableRecord
  2
CENTERX2
 70
     0
  3
Center (2x) ________  __  ________  __  _____
 72
    65
 73
     4
 40
20.32
 49
12.7
 74
     0
 49
-2.54
 74
     0
 49
2.54
 74
     0
 49
-2.54
 74
     0
  0
LTYPE
  5
43
330
5
100
AcDbSymbolTableRecord
100
AcDbLinetypeTableRecord
  2
DOT2
 70
     0
  3
Dot (.5x) ........................................
 72
    65
 73
     2
 40
0.635
 49
0.0
 74
     0
 49
-0.635
 74
     0
  0
ENDTAB
  0
TABLE
  2
LAYER
  5
2
330
0
100
AcDbSymbolTable
 70
     1
  0
LAYER
  5
10
330
2
100
AcDbSymbolTableRecord
100
AcDbLayerTableRecord
  2
0
 70
     0
 62
     7
  6
Continuous
370
    -3
390
F
  0
ENDTAB
  0
TABLE
  2
STYLE
  5
3
330
0
100
AcDbSymbolTable
 70
     1
  0
STYLE
  5
11
330
3
100
AcDbSymbolTableRecord
100
AcDbTextStyleTableRecord
  2
Standard
 70
     0
 40
0.0
 41
1.0
 50
0.0
 71
     0
 42
3.5
  3
txt
  4

  0
ENDTAB
  0
TABLE
  2
VIEW
  5
6
330
0
100
AcDbSymbolTable
 70
     0
  0
ENDTAB
  0
TABLE
  2
UCS
  5
7
330
0
100
AcDbSymbolTable
 70
     0
  0
ENDTAB
  0
TABLE
  2
APPID
  5
9
330
0
100
AcDbSymbolTable
 70
     1
  0
APPID
  5
12
330
9
100
AcDbSymbolTableRecord
100
AcDbRegAppTableRecord
  2
ACAD
 70
     0
  0
ENDTAB
  0
TABLE
  2
DIMSTYLE
  5
A
330
0
100
AcDbSymbolTable
 70
     1
100
AcDbDimStyleTable
  0
DIMSTYLE
105
27
330
A
100
AcDbSymbolTableRecord
100
AcDbDimStyleTableRecord
  2
ISO-25
 70
     0
 41
2.5
 42
0.625
 43
3.75
 44
1.25
 73
     0
 74
     0
 77
     1
 78
     8
140
2.5
141
2.5
143
0.0393700787
147
0.625
171
     3
172
     1
178
     0
271
     2
272
     2
274
     3
278
    44
283
     0
284
     8
340
11
  0
ENDTAB
  0
TABLE
  2
BLOCK_RECORD
  5
1
330
0
100
AcDbSymbolTable
 70
     1
  0
BLOCK_RECORD
  5
1F
330
1
100
AcDbSymbolTableRecord
100
AcDbBlockTableRecord
  2
*Model_Space
340
22
  0
BLOCK_RECORD
  5
1B
330
1
100
AcDbSymbolTableRecord
100
AcDbBlockTableRecord
  2
*Paper_Space
340
1E
  0
BLOCK_RECORD
  5
23
330
1
100
AcDbSymbolTableRecord
100
AcDbBlockTableRecord
  2
*Paper_Space0
340
26
  0
ENDTAB
  0
ENDSEC
  0
SECTION
  2
BLOCKS
  0
BLOCK
  5
20
330
1F
100
AcDbEntity
  8
0
100
AcDbBlockBegin
  2
*Model_Space
 70
     0
 10
0.0
 20
0.0
 30
0.0
  3
*Model_Space
  1

  0
ENDBLK
  5
21
330
1F
100
AcDbEntity
  8
0
100
AcDbBlockEnd
  0
BLOCK
  5
1C
330
1B
100
AcDbEntity
 67
     1
  8
0
100
AcDbBlockBegin
  2
*Paper_Space
 70
     0
 10
0.0
 20
0.0
 30
0.0
  3
*Paper_Space
  1

  0
ENDBLK
  5
1D
330
1B
100
AcDbEntity
 67
     1
  8
0
100
AcDbBlockEnd
  0
BLOCK
  5
24
330
23
100
AcDbEntity
  8
0
100
AcDbBlockBegin
  2
*Paper_Space0
 70
     0
 10
0.0
 20
0.0
 30
0.0
  3
*Paper_Space0
  1

  0
ENDBLK
  5
25
330
23
100
AcDbEntity
  8
0
100
AcDbBlockEnd
  0
ENDSEC
  0
SECTION
  2
ENTITIES
  0
LINE
  5
44
330
1F
100
AcDbEntity
  8
0
  6
Continuous
 62
     7
370
    15
100
AcDbLine
 10
136.2171624651
 20
516.0286721327
 30
0.0
 11
136.2171624651
 21
496.0286716484
 31
0.0
  0
LINE
  5
45
330
1F
100
AcDbEntity
  8
0
  6
Continuous
 62
     7
370
    15
100
AcDbLine
 10
132.5171612998
 20
516.0286721327
 30
0.0
 11
136.2171624651
 21
516.0286721327
 31
0.0
  0
LINE
  5
46
330
1F
100
AcDbEntity
  8
0
  6
Continuous
 62
     7
370
    15
100
AcDbLine
 10
132.5171612998
 20
496.0286716484
 30
0.0
 11
132.5171612998
 21
516.0286721327
 31
0.0
  0
LINE
  5
47
330
1F
100
AcDbEntity
  8
0
  6
Continuous
 62
     7
370
    15
100
AcDbLine
 10
136.2171624651
 20
496.0286716484
 30
0.0
 11
132.5171612998
 21
496.0286716484
 31
0.0
  0
LINE
  5
48
330
1F
100
AcDbEntity
  8
0
  6
Continuous
 62
     7
370
    15
100
AcDbLine
 10
132.5171612998
 20
396.028666433
 30
0.0
 11
132.5171612998
 21
416.0286697113
 31
0.0
  0
LINE
  5
49
330
1F
100
AcDbEntity
  8
0
  6
Continuous
 62
     7
370
    15
100
AcDbLine
 10
136.2171624651
 20
396.028666433
 30
0.0
 11
132.5171612998
 21
396.028666433
 31
0.0
  0
LINE
  5
4A
330
1F
100
AcDbEntity
  8
0
  6
Continuous
 62
     7
370
    15
100
AcDbLine
 10
136.2171624651
 20
416.0286697113
 30
0.0
 11
136.2171624651
 21
396.028666433
 31
0.0
  0
LINE
  5
4B
330
1F
100
AcDbEntity
  8
0
  6
Continuous
 62
     7
370
    15
100
AcDbLine
 10
132.5171612998
 20
416.0286697113
 30
0.0
 11
136.2171624651
 21
416.0286697113
 31
0.0
  0
LINE
  5
4C
330
1F
100
AcDbEntity
  8
0
  6
Continuous
 62
     7
370
    15
100
AcDbLine
 10
105.7171621223
 20
531.0286717975
 30
0.0
 11
105.7171621223
 21
534.7286717986
 31
0.0
  0
LINE
  5
4D
330
1F
100
AcDbEntity
  8
0
  6
Continuous
 62
     7
370
    15
100
AcDbLine
 10
105.7171621223
 20
534.7286717986
 30
0.0
 11
125.7171616753
 21
534.7286717986
 31
0.0
  0
LINE
  5
4E
330
1F
100
AcDbEntity
  8
0
  6
Continuous
 62
     7
370
    15
100
AcDbLine
 10
125.7171616753
 20
534.7286717986
 30
0.0
 11
125.7171616753
 21
531.0286717975
 31
0.0
  0
LINE
  5
4F
330
1F
100
AcDbEntity
  8
0
  6
Continuous
 62
     7
370
    15
100
AcDbLine
 10
125.7171616753
 20
531.0286717975
 30
0.0
 11
168.2171602597
 21
531.0286717975
 31
0.0
  0
LINE
  5
50
330
1F
100
AcDbEntity
  8
0
  6
Continuous
 62
     7
370
    15
100
AcDbLine
 10
168.2171602597
 20
531.0286717975
 30
0.0
 11
168.2171602597
 21
516.0286721327
 31
0.0
  0
LINE
  5
51
330
1F
100
AcDbEntity
  8
0
  6
Continuous
 62
     7
370
    15
100
AcDbLine
 10
168.2171602597
 20
516.0286721327
 30
0.0
 11
171.9171632876
 21
516.0286721327
 31
0.0
  0
LINE
  5
52
330
1F
100
AcDbEntity
  8
0
  6
Continuous
 62
     7
370
    15
100
AcDbLine
 10
171.9171632876
 20
516.0286721327
 30
0.0
 11
171.9171632876
 21
496.0286716484
 31
0.0
  0
LINE
  5
53
330
1F
100
AcDbEntity
  8
0
  6
Continuous
 62
     7
370
    15
100
AcDbLine
 10
171.9171632876
 20
496.0286716484
 30
0.0
 11
168.2171602597
 21
496.0286716484
 31
0.0
  0
LINE
  5
54
330
1F
100
AcDbEntity
  8
0
  6
Continuous
 62
     7
370
    15
100
AcDbLine
 10
168.2171602597
 20
496.0286716484
 30
0.0
 11
168.2171602597
 21
416.0286697113
 31
0.0
  0
LINE
  5
55
330
1F
100
AcDbEntity
  8
0
  6
Continuous
 62
     7
370
    15
100
AcDbLine
 10
168.2171602597
 20
416.0286697113
 30
0.0
 11
171.9171632876
 21
416.0286697113
 31
0.0
  0
LINE
  5
56
330
1F
100
AcDbEntity
  8
0
  6
Continuous
 62
     7
370
    15
100
AcDbLine
 10
171.9171632876
 20
416.0286697113
 30
0.0
 11
171.9171632876
 21
396.028666433
 31
0.0
  0
LINE
  5
57
330
1F
100
AcDbEntity
  8
0
  6
Continuous
 62
     7
370
    15
100
AcDbLine
 10
171.9171632876
 20
396.028666433
 30
0.0
 11
168.2171602597
 21
396.028666433
 31
0.0
  0
LINE
  5
58
330
1F
100
AcDbEntity
  8
0
  6
Continuous
 62
     7
370
    15
100
AcDbLine
 10
168.2171602597
 20
396.028666433
 30
0.0
 11
168.2171602597
 21
381.028665837
 31
0.0
  0
LINE
  5
59
330
1F
100
AcDbEntity
  8
0
  6
Continuous
 62
     7
370
    15
100
AcDbLine
 10
168.2171602597
 20
381.028665837
 30
0.0
 11
63.2171635379
 21
381.028665837
 31
0.0
  0
LINE
  5
5A
330
1F
100
AcDbEntity
  8
0
  6
Continuous
 62
     7
370
    15
100
AcDbLine
 10
63.2171635379
 20
381.028665837
 30
0.0
 11
63.2171635379
 21
396.028666433
 31
0.0
  0
LINE
  5
5B
330
1F
100
AcDbEntity
  8
0
  6
Continuous
 62
     7
370
    15
100
AcDbLine
 10
63.2171635379
 20
396.028666433
 30
0.0
 11
59.51716051
 21
396.028666433
 31
0.0
  0
LINE
  5
5C
330
1F
100
AcDbEntity
  8
0
  6
Continuous
 62
     7
370
    15
100
AcDbLine
 10
59.51716051
 20
396.028666433
 30
0.0
 11
59.51716051
 21
416.0286697113
 31
0.0
  0
LINE
  5
5D
330
1F
100
AcDbEntity
  8
0
  6
Continuous
 62
     7
370
    15
100
AcDbLine
 10
59.51716051
 20
416.0286697113
 30
0.0
 11
63.2171635379
 21
416.0286697113
 31
0.0
  0
LINE
  5
5E
330
1F
100
AcDbEntity
  8
0
  6
Continuous
 62
     7
370
    15
100
AcDbLine
 10
63.2171635379
 20
496.0286716484
 30
0.0
 11
59.51716051
 21
496.0286716484
 31
0.0
  0
LINE
  5
5F
330
1F
100
AcDbEntity
  8
0
  6
Continuous
 62
     7
370
    15
100
AcDbLine
 10
59.51716051
 20
496.0286716484
 30
0.0
 11
59.51716051
 21
516.0286721327
 31
0.0
  0
LINE
  5
60
330
1F
100
AcDbEntity
  8
0
  6
Continuous
 62
     7
370
    15
100
AcDbLine
 10
59.51716051
 20
516.0286721327
 30
0.0
 11
63.2171635379
 21
516.0286721327
 31
0.0
  0
LINE
  5
61
330
1F
100
AcDbEntity
  8
0
  6
Continuous
 62
     7
370
    15
100
AcDbLine
 10
63.2171635379
 20
516.0286721327
 30
0.0
 11
63.2171635379
 21
531.0286717975
 31
0.0
  0
LINE
  5
62
330
1F
100
AcDbEntity
  8
0
  6
Continuous
 62
     7
370
    15
100
AcDbLine
 10
63.2171635379
 20
531.0286717975
 30
0.0
 11
105.7171621223
 21
531.0286717975
 31
0.0
  0
LINE
  5
63
330
1F
100
AcDbEntity
  8
0
  6
Continuous
 62
     7
370
    15
100
AcDbLine
 10
98.9171624978
 20
416.0286697113
 30
0.0
 11
98.9171624978
 21
396.028666433
 31
0.0
  0
LINE
  5
64
330
1F
100
AcDbEntity
  8
0
  6
Continuous
 62
     7
370
    15
100
AcDbLine
 10
95.2171613326
 20
416.0286697113
 30
0.0
 11
98.9171624978
 21
416.0286697113
 31
0.0
  0
LINE
  5
65
330
1F
100
AcDbEntity
  8
0
  6
Continuous
 62
     7
370
    15
100
AcDbLine
 10
95.2171613326
 20
396.028666433
 30
0.0
 11
95.2171613326
 21
416.0286697113
 31
0.0
  0
LINE
  5
66
330
1F
100
AcDbEntity
  8
0
  6
Continuous
 62
     7
370
    15
100
AcDbLine
 10
98.9171624978
 20
396.028666433
 30
0.0
 11
95.2171613326
 21
396.028666433
 31
0.0
  0
LINE
  5
67
330
1F
100
AcDbEntity
  8
0
  6
Continuous
 62
     7
370
    15
100
AcDbLine
 10
98.9171624978
 20
516.0286721327
 30
0.0
 11
98.9171624978
 21
496.0286716484
 31
0.0
  0
LINE
  5
68
330
1F
100
AcDbEntity
  8
0
  6
Continuous
 62
     7
370
    15
100
AcDbLine
 10
95.2171613326
 20
516.0286721327
 30
0.0
 11
98.9171624978
 21
516.0286721327
 31
0.0
  0
LINE
  5
69
330
1F
100
AcDbEntity
  8
0
  6
Continuous
 62
     7
370
    15
100
AcDbLine
 10
95.2171613326
 20
496.0286716484
 30
0.0
 11
95.2171613326
 21
516.0286721327
 31
0.0
  0
LINE
  5
6A
330
1F
100
AcDbEntity
  8
0
  6
Continuous
 62
     7
370
    15
100
AcDbLine
 10
98.9171624978
 20
496.0286716484
 30
0.0
 11
95.2171613326
 21
496.0286716484
 31
0.0
  0
LINE
  5
6B
330
1F
100
AcDbEntity
  8
0
  6
Continuous
 62
     7
370
    15
100
AcDbLine
 10
63.2171635379
 20
416.0286697113
 30
0.0
 11
63.2171635379
 21
496.0286716484
 31
0.0
  0
LINE
  5
6C
330
1F
100
AcDbEntity
  8
0
  6
Continuous
 62
     7
370
    15
100
AcDbLine
 10
317.6569547102
 20
490.5896514687
 30
0.0
 11
317.6569547102
 21
510.589651953
 31
0.0
  0
LINE
  5
6D
330
1F
100
AcDbEntity
  8
0
  6
Continuous
 62
     7
370
    15
100
AcDbLine
 10
321.3569558755
 20
490.5896514687
 30
0.0
 11
317.6569547102
 21
490.5896514687
 31
0.0
  0
LINE
  5
6E
330
1F
100
AcDbEntity
  8
0
  6
Continuous
 62
     7
370
    15
100
AcDbLine
 10
321.3569558755
 20
510.589651953
 30
0.0
 11
321.3569558755
 21
490.5896514687
 31
0.0
  0
LINE
  5
6F
330
1F
100
AcDbEntity
  8
0
  6
Continuous
 62
     7
370
    15
100
AcDbLine
 10
317.6569547102
 20
510.589651953
 30
0.0
 11
321.3569558755
 21
510.589651953
 31
0.0
  0
LINE
  5
70
330
1F
100
AcDbEntity
  8
0
  6
Continuous
 62
     7
370
    15
100
AcDbLine
 10
321.3569558755
 20
610.5896571684
 30
0.0
 11
321.3569558755
 21
590.5896538902
 31
0.0
  0
LINE
  5
71
330
1F
100
AcDbEntity
  8
0
  6
Continuous
 62
     7
370
    15
100
AcDbLine
 10
317.6569547102
 20
610.5896571684
 30
0.0
 11
321.3569558755
 21
610.5896571684
 31
0.0
  0
LINE
  5
72
330
1F
100
AcDbEntity
  8
0
  6
Continuous
 62
     7
370
    15
100
AcDbLine
 10
317.6569547102
 20
590.5896538902
 30
0.0
 11
317.6569547102
 21
610.5896571684
 31
0.0
  0
LINE
  5
73
330
1F
100
AcDbEntity
  8
0
  6
Continuous
 62
     7
370
    15
100
AcDbLine
 10
321.3569558755
 20
590.5896538902
 30
0.0
 11
317.6569547102
 21
590.5896538902
 31
0.0
  0
LINE
  5
74
330
1F
100
AcDbEntity
  8
0
  6
Continuous
 62
     7
370
    15
100
AcDbLine
 10
348.1569550529
 20
475.589651804
 30
0.0
 11
348.1569550529
 21
471.8896518029
 31
0.0
  0
LINE
  5
75
330
1F
100
AcDbEntity
  8
0
  6
Continuous
 62
     7
370
    15
100
AcDbLine
 10
348.1569550529
 20
471.8896518029
 30
0.0
 11
328.1569555
 21
471.8896518029
 31
0.0
  0
LINE
  5
76
330
1F
100
AcDbEntity
  8
0
  6
Continuous
 62
     7
370
    15
100
AcDbLine
 10
328.1569555
 20
471.8896518029
 30
0.0
 11
328.1569555
 21
475.589651804
 31
0.0
  0
LINE
  5
77
330
1F
100
AcDbEntity
  8
0
  6
Continuous
 62
     7
370
    15
100
AcDbLine
 10
328.1569555
 20
475.589651804
 30
0.0
 11
285.6569569156
 21
475.589651804
 31
0.0
  0
LINE
  5
78
330
1F
100
AcDbEntity
  8
0
  6
Continuous
 62
     7
370
    15
100
AcDbLine
 10
285.6569569156
 20
475.589651804
 30
0.0
 11
285.6569569156
 21
490.5896514687
 31
0.0
  0
LINE
  5
79
330
1F
100
AcDbEntity
  8
0
  6
Continuous
 62
     7
370
    15
100
AcDbLine
 10
285.6569569156
 20
490.5896514687
 30
0.0
 11
281.9569538877
 21
490.5896514687
 31
0.0
  0
LINE
  5
7A
330
1F
100
AcDbEntity
  8
0
  6
Continuous
 62
     7
370
    15
100
AcDbLine
 10
281.9569538877
 20
490.5896514687
 30
0.0
 11
281.9569538877
 21
510.589651953
 31
0.0
  0
LINE
  5
7B
330
1F
100
AcDbEntity
  8
0
  6
Continuous
 62
     7
370
    15
100
AcDbLine
 10
281.9569538877
 20
510.589651953
 30
0.0
 11
285.6569569156
 21
510.589651953
 31
0.0
  0
LINE
  5
7C
330
1F
100
AcDbEntity
  8
0
  6
Continuous
 62
     7
370
    15
100
AcDbLine
 10
285.6569569156
 20
510.589651953
 30
0.0
 11
285.6569569156
 21
590.5896538902
 31
0.0
  0
LINE
  5
7D
330
1F
100
AcDbEntity
  8
0
  6
Continuous
 62
     7
370
    15
100
AcDbLine
 10
285.6569569156
 20
590.5896538902
 30
0.0
 11
281.9569538877
 21
590.5896538902
 31
0.0
  0
LINE
  5
7E
330
1F
100
AcDbEntity
  8
0
  6
Continuous
 62
     7
370
    15
100
AcDbLine
 10
281.9569538877
 20
590.5896538902
 30
0.0
 11
281.9569538877
 21
610.5896571684
 31
0.0
  0
LINE
  5
7F
330
1F
100
AcDbEntity
  8
0
  6
Continuous
 62
     7
370
    15
100
AcDbLine
 10
281.9569538877
 20
610.5896571684
 30
0.0
 11
285.6569569156
 21
610.5896571684
 31
0.0
  0
LINE
  5
80
330
1F
100
AcDbEntity
  8
0
  6
Continuous
 62
     7
370
    15
100
AcDbLine
 10
285.6569569156
 20
610.5896571684
 30
0.0
 11
285.6569569156
 21
625.5896577645
 31
0.0
  0
LINE
  5
81
330
1F
100
AcDbEntity
  8
0
  6
Continuous
 62
     7
370
    15
100
AcDbLine
 10
285.6569569156
 20
625.5896577645
 30
0.0
 11
390.6569536373
 21
625.5896577645
 31
0.0
  0
LINE
  5
82
330
1F
100
AcDbEntity
  8
0
  6
Continuous
 62
     7
370
    15
100
AcDbLine
 10
390.6569536373
 20
625.5896577645
 30
0.0
 11
390.6569536373
 21
610.5896571684
 31
0.0
  0
LINE
  5
83
330
1F
100
AcDbEntity
  8
0
  6
Continuous
 62
     7
370
    15
100
AcDbLine
 10
390.6569536373
 20
610.5896571684
 30
0.0
 11
394.3569566652
 21
610.5896571684
 31
0.0
  0
LINE
  5
84
330
1F
100
AcDbEntity
  8
0
  6
Continuous
 62
     7
370
    15
100
AcDbLine
 10
394.3569566652
 20
610.5896571684
 30
0.0
 11
394.3569566652
 21
590.5896538902
 31
0.0
  0
LINE
  5
85
330
1F
100
AcDbEntity
  8
0
  6
Continuous
 62
     7
370
    15
100
AcDbLine
 10
394.3569566652
 20
590.5896538902
 30
0.0
 11
390.6569536373
 21
590.5896538902
 31
0.0
  0
LINE
  5
86
330
1F
100
AcDbEntity
  8
0
  6
Continuous
 62
     7
370
    15
100
AcDbLine
 10
390.6569536373
 20
510.589651953
 30
0.0
 11
394.3569566652
 21
510.589651953
 31
0.0
  0
LINE
  5
87
330
1F
100
AcDbEntity
  8
0
  6
Continuous
 62
     7
370
    15
100
AcDbLine
 10
394.3569566652
 20
510.589651953
 30
0.0
 11
394.3569566652
 21
490.5896514687
 31
0.0
  0
LINE
  5
88
330
1F
100
AcDbEntity
  8
0
  6
Continuous
 62
     7
370
    15
100
AcDbLine
 10
394.3569566652
 20
490.5896514687
 30
0.0
 11
390.6569536373
 21
490.5896514687
 31
0.0
  0
LINE
  5
89
330
1F
100
AcDbEntity
  8
0
  6
Continuous
 62
     7
370
    15
100
AcDbLine
 10
390.6569536373
 20
490.5896514687
 30
0.0
 11
390.6569536373
 21
475.589651804
 31
0.0
  0
LINE
  5
8A
330
1F
100
AcDbEntity
  8
0
  6
Continuous
 62
     7
370
    15
100
AcDbLine
 10
390.6569536373
 20
475.589651804
 30
0.0
 11
348.1569550529
 21
475.589651804
 31
0.0
  0
LINE
  5
8B
330
1F
100
AcDbEntity
  8
0
  6
Continuous
 62
     7
370
    15
100
AcDbLine
 10
354.9569546774
 20
590.5896538902
 30
0.0
 11
354.9569546774
 21
610.5896571684
 31
0.0
  0
LINE
  5
8C
330
1F
100
AcDbEntity
  8
0
  6
Continuous
 62
     7
370
    15
100
AcDbLine
 10
358.6569558427
 20
590.5896538902
 30
0.0
 11
354.9569546774
 21
590.5896538902
 31
0.0
  0
LINE
  5
8D
330
1F
100
AcDbEntity
  8
0
  6
Continuous
 62
     7
370
    15
100
AcDbLine
 10
358.6569558427
 20
610.5896571684
 30
0.0
 11
358.6569558427
 21
590.5896538902
 31
0.0
  0
LINE
  5
8E
330
1F
100
AcDbEntity
  8
0
  6
Continuous
 62
     7
370
    15
100
AcDbLine
 10
354.9569546774
 20
610.5896571684
 30
0.0
 11
358.6569558427
 21
610.5896571684
 31
0.0
  0
LINE
  5
8F
330
1F
100
AcDbEntity
  8
0
  6
Continuous
 62
     7
370
    15
100
AcDbLine
 10
354.9569546774
 20
490.5896514687
 30
0.0
 11
354.9569546774
 21
510.589651953
 31
0.0
  0
LINE
  5
90
330
1F
100
AcDbEntity
  8
0
  6
Continuous
 62
     7
370
    15
100
AcDbLine
 10
358.6569558427
 20
490.5896514687
 30
0.0
 11
354.9569546774
 21
490.5896514687
 31
0.0
  0
LINE
  5
91
330
1F
100
AcDbEntity
  8
0
  6
Continuous
 62
     7
370
    15
100
AcDbLine
 10
358.6569558427
 20
510.589651953
 30
0.0
 11
358.6569558427
 21
490.5896514687
 31
0.0
  0
LINE
  5
92
330
1F
100
AcDbEntity
  8
0
  6
Continuous
 62
     7
370
    15
100
AcDbLine
 10
354.9569546774
 20
510.589651953
 30
0.0
 11
358.6569558427
 21
510.589651953
 31
0.0
  0
LINE
  5
93
330
1F
100
AcDbEntity
  8
0
  6
Continuous
 62
     7
370
    15
100
AcDbLine
 10
390.6569536373
 20
590.5896538902
 30
0.0
 11
390.6569536373
 21
510.589651953
 31
0.0
  0
LINE
  5
94
330
1F
100
AcDbEntity
  8
0
  6
Continuous
 62
     7
370
    15
100
AcDbLine
 10
283.643753058
 20
155.5292368422
 30
0.0
 11
287.3437542233
 21
155.5292368422
 31
0.0
  0
LINE
  5
95
330
1F
100
AcDbEntity
  8
0
  6
Continuous
 62
     7
370
    15
100
AcDbLine
 10
283.643753058
 20
135.5292335639
 30
0.0
 11
283.643753058
 21
155.5292368422
 31
0.0
  0
LINE
  5
96
330
1F
100
AcDbEntity
  8
0
  6
Continuous
 62
     7
370
    15
100
AcDbLine
 10
287.3437542233
 20
135.5292335639
 30
0.0
 11
283.643753058
 21
135.5292335639
 31
0.0
  0
LINE
  5
97
330
1F
100
AcDbEntity
  8
0
  6
Continuous
 62
     7
370
    15
100
AcDbLine
 10
287.3437542233
 20
155.5292368422
 30
0.0
 11
287.3437542233
 21
135.5292335639
 31
0.0
  0
LINE
  5
98
330
1F
100
AcDbEntity
  8
0
  6
Continuous
 62
     7
370
    15
100
AcDbLine
 10
283.643753058
 20
55.5292316268
 30
0.0
 11
287.3437542233
 21
55.5292316268
 31
0.0
  0
LINE
  5
99
330
1F
100
AcDbEntity
  8
0
  6
Continuous
 62
     7
370
    15
100
AcDbLine
 10
283.643753058
 20
35.5292311425
 30
0.0
 11
283.643753058
 21
55.5292316268
 31
0.0
  0
LINE
  5
9A
330
1F
100
AcDbEntity
  8
0
  6
Continuous
 62
     7
370
    15
100
AcDbLine
 10
287.3437542233
 20
35.5292311425
 30
0.0
 11
283.643753058
 21
35.5292311425
 31
0.0
  0
LINE
  5
9B
330
1F
100
AcDbEntity
  8
0
  6
Continuous
 62
     7
370
    15
100
AcDbLine
 10
287.3437542233
 20
55.5292316268
 30
0.0
 11
287.3437542233
 21
35.5292311425
 31
0.0
  0
LINE
  5
9C
330
1F
100
AcDbEntity
  8
0
  6
Continuous
 62
     7
370
    15
100
AcDbLine
 10
251.6437552634
 20
135.5292335639
 30
0.0
 11
247.9437522355
 21
135.5292335639
 31
0.0
  0
LINE
  5
9D
330
1F
100
AcDbEntity
  8
0
  6
Continuous
 62
     7
370
    15
100
AcDbLine
 10
251.6437552634
 20
155.5292368422
 30
0.0
 11
251.6437552634
 21
135.5292335639
 31
0.0
  0
LINE
  5
9E
330
1F
100
AcDbEntity
  8
0
  6
Continuous
 62
     7
370
    15
100
AcDbLine
 10
247.9437522355
 20
155.5292368422
 30
0.0
 11
251.6437552634
 21
155.5292368422
 31
0.0
  0
LINE
  5
9F
330
1F
100
AcDbEntity
  8
0
  6
Continuous
 62
     7
370
    15
100
AcDbLine
 10
247.9437522355
 20
135.5292335639
 30
0.0
 11
247.9437522355
 21
155.5292368422
 31
0.0
  0
LINE
  5
A0
330
1F
100
AcDbEntity
  8
0
  6
Continuous
 62
     7
370
    15
100
AcDbLine
 10
176.1437475446
 20
157.5292259942
 30
0.0
 11
176.1437475446
 21
155.5292368422
 31
0.0
  0
ARC
  5
A1
330
1F
100
AcDbEntity
  8
0
  6
Continuous
 62
     7
370
    15
100
AcDbCircle
 10
175.1437536242
 20
157.5292314778
 30
0.0
 40
0.9999999999999716
100
AcDbArc
 50
0.0
 51
180.0
  0
LINE
  5
A2
330
1F
100
AcDbEntity
  8
0
  6
Continuous
 62
     7
370
    15
100
AcDbLine
 10
174.1437583926
 20
155.5292368422
 30
0.0
 11
174.1437583926
 21
157.5292259942
 31
0.0
  0
ARC
  5
A3
330
1F
100
AcDbEntity
  8
0
  6
Continuous
 62
     7
370
    15
100
AcDbCircle
 10
175.1437536242
 20
155.5292314778
 30
0.0
 40
0.9999999999999716
100
AcDbArc
 50
180.0
 51
0.0
  0
LINE
  5
A4
330
1F
100
AcDbEntity
  8
0
  6
Continuous
 62
     7
370
    15
100
AcDbLine
 10
229.143750644
 20
157.5292259942
 30
0.0
 11
229.143750644
 21
155.5292368422
 31
0.0
  0
ARC
  5
A5
330
1F
100
AcDbEntity
  8
0
  6
Continuous
 62
     7
370
    15
100
AcDbCircle
 10
228.1437536242
 20
157.5292314778
 30
0.0
 40
1.0
100
AcDbArc
 50
0.0
 51
180.0
  0
LINE
  5
A6
330
1F
100
AcDbEntity
  8
0
  6
Continuous
 62
     7
370
    15
100
AcDbLine
 10
227.1437540415
 20
155.5292368422
 30
0.0
 11
227.1437540415
 21
157.5292259942
 31
0.0
  0
ARC
  5
A7
330
1F
100
AcDbEntity
  8
0
  6
Continuous
 62
     7
370
    15
100
AcDbCircle
 10
228.1437536242
 20
155.5292314778
 30
0.0
 40
0.9999999999999716
100
AcDbArc
 50
180.0
 51
0.0
  0
LINE
  5
A8
330
1F
100
AcDbEntity
  8
0
  6
Continuous
 62
     7
370
    15
100
AcDbLine
 10
224.8001068595
 20
108.1216991435
 30
0.0
 11
224.1084396604
 21
106.2451065073
 31
0.0
  0
ARC
  5
A9
330
1F
100
AcDbEntity
  8
0
  6
Continuous
 62
     7
370
    15
100
AcDbCircle
 10
223.861810588
 20
108.4675278062
 30
0.0
 40
1.000000000000006
100
AcDbArc
 50
339.7673874833
 51
159.7673874833
  0
LINE
  5
AA
330
1F
100
AcDbEntity
  8
0
  6
Continuous
 62
     7
370
    15
100
AcDbLine
 10
222.2318470242
 20
106.9367662559
 30
0.0
 11
222.9235142234
 21
108.813358892
 31
0.0
  0
ARC
  5
AB
330
1F
100
AcDbEntity
  8
0
  6
Continuous
 62
     7
370
    15
100
AcDbCircle
 10
223.1701459294
 20
106.5909351493
 30
0.0
 40
1.000000000000006
100
AcDbArc
 50
159.7673874833
 51
339.7673874833
  0
LINE
  5
AC
330
1F
100
AcDbEntity
  8
0
  6
Continuous
 62
     7
370
    15
100
AcDbLine
 10
180.3639948132
 20
108.813358892
 30
0.0
 11
181.0556545618
 21
106.9367662559
 31
0.0
  0
ARC
  5
AD
330
1F
100
AcDbEntity
  8
0
  6
Continuous
 62
     7
370
    15
100
AcDbCircle
 10
179.4256966605
 20
108.4675278062
 30
0.0
 40
0.9999999999999717
100
AcDbArc
 50
20.2326125167
 51
200.2326125167
  0
LINE
  5
AE
330
1F
100
AcDbEntity
  8
0
  6
Continuous
 62
     7
370
    15
100
AcDbLine
 10
179.1790619257
 20
106.2451065073
 30
0.0
 11
178.4874021771
 21
108.1216991435
 31
0.0
  0
ARC
  5
AF
330
1F
100
AcDbEntity
  8
0
  6
Continuous
 62
     7
370
    15
100
AcDbCircle
 10
180.1173613191
 20
106.5909351493
 30
0.0
 40
0.9999999999999816
100
AcDbArc
 50
200.2326125167
 51
20.2326125167
  0
LINE
  5
B0
330
1F
100
AcDbEntity
  8
0
  6
Continuous
 62
     7
370
    15
100
AcDbLine
 10
234.1437533262
 20
181.5292299281
 30
0.0
 11
232.1437567237
 21
181.5292299281
 31
0.0
  0
ARC
  5
B1
330
1F
100
AcDbEntity
  8
0
  6
Continuous
 62
     7
370
    15
100
AcDbCircle
 10
234.1437536242
 20
182.5292314778
 30
0.0
 40
0.9999999999999716
100
AcDbArc
 50
270.0
 51
90.0
  0
LINE
  5
B2
330
1F
100
AcDbEntity
  8
0
  6
Continuous
 62
     7
370
    15
100
AcDbLine
 10
232.1437567237
 20
183.5292339812
 30
0.0
 11
234.1437533262
 21
183.5292339812
 31
0.0
  0
ARC
  5
B3
330
1F
100
AcDbEntity
  8
0
  6
Continuous
 62
     7
370
    15
100
AcDbCircle
 10
232.1437536242
 20
182.5292314778
 30
0.0
 40
0.9999999999999716
100
AcDbArc
 50
90.0
 51
270.0
  0
LINE
  5
B4
330
1F
100
AcDbEntity
  8
0
  6
Continuous
 62
     7
370
    15
100
AcDbLine
 10
169.1437482598
 20
183.5292339812
 30
0.0
 11
171.1437523129
 21
183.5292339812
 31
0.0
  0
ARC
  5
B5
330
1F
100
AcDbEntity
  8
0
  6
Continuous
 62
     7
370
    15
100
AcDbCircle
 10
169.1437536242
 20
182.5292314778
 30
0.0
 40
0.9999999999999716
100
AcDbArc
 50
90.0
 51
270.0
  0
LINE
  5
B6
330
1F
100
AcDbEntity
  8
0
  6
Continuous
 62
     7
370
    15
100
AcDbLine
 10
171.1437523129
 20
181.5292299281
 30
0.0
 11
169.1437482598
 21
181.5292299281
 31
0.0
  0
ARC
  5
B7
330
1F
100
AcDbEntity
  8
0
  6
Continuous
 62
     7
370
    15
100
AcDbCircle
 10
171.1437536242
 20
182.5292314778
 30
0.0
 40
0.9999999999999716
100
AcDbArc
 50
270.0
 51
90.0
  0
LINE
  5
B8
330
1F
100
AcDbEntity
  8
0
  6
Continuous
 62
     7
370
    15
100
AcDbLine
 10
191.6437566045
 20
20.5292314778
 30
0.0
 11
211.6437524321
 21
20.5292314778
 31
0.0
  0
LINE
  5
B9
330
1F
100
AcDbEntity
  8
0
  6
Continuous
 62
     7
370
    15
100
AcDbLine
 10
191.6437566045
 20
16.8292314767
 30
0.0
 11
191.6437566045
 21
20.5292314778
 31
0.0
  0
LINE
  5
BA
330
1F
100
AcDbEntity
  8
0
  6
Continuous
 62
     7
370
    15
100
AcDbLine
 10
211.6437524321
 20
16.8292314767
 30
0.0
 11
191.6437566045
 21
16.8292314767
 31
0.0
  0
LINE
  5
BB
330
1F
100
AcDbEntity
  8
0
  6
Continuous
 62
     7
370
    15
100
AcDbLine
 10
211.6437524321
 20
20.5292314778
 30
0.0
 11
211.6437524321
 21
16.8292314767
 31
0.0
  0
LINE
  5
BC
330
1F
100
AcDbEntity
  8
0
  6
Continuous
 62
     7
370
    15
100
AcDbLine
 10
251.6437552634
 20
35.5292311425
 30
0.0
 11
247.9437522355
 21
35.5292311425
 31
0.0
  0
LINE
  5
BD
330
1F
100
AcDbEntity
  8
0
  6
Continuous
 62
     7
370
    15
100
AcDbLine
 10
251.6437552634
 20
55.5292316268
 30
0.0
 11
251.6437552634
 21
35.5292311425
 31
0.0
  0
LINE
  5
BE
330
1F
100
AcDbEntity
  8
0
  6
Continuous
 62
     7
370
    15
100
AcDbLine
 10
247.9437522355
 20
55.5292316268
 30
0.0
 11
251.6437552634
 21
55.5292316268
 31
0.0
  0
LINE
  5
BF
330
1F
100
AcDbEntity
  8
0
  6
Continuous
 62
     7
370
    15
100
AcDbLine
 10
247.9437522355
 20
35.5292311425
 30
0.0
 11
247.9437522355
 21
55.5292316268
 31
0.0
  0
LINE
  5
C0
330
1F
100
AcDbEntity
  8
0
  6
Continuous
 62
     7
370
    15
100
AcDbLine
 10
356.6437519851
 20
55.5292316268
 30
0.0
 11
356.6437519851
 21
35.5292311425
 31
0.0
  0
LINE
  5
C1
330
1F
100
AcDbEntity
  8
0
  6
Continuous
 62
     7
370
    15
100
AcDbLine
 10
356.6437519851
 20
35.5292311425
 30
0.0
 11
360.343755013
 21
35.5292311425
 31
0.0
  0
LINE
  5
C2
330
1F
100
AcDbEntity
  8
0
  6
Continuous
 62
     7
370
    15
100
AcDbLine
 10
360.343755013
 20
35.5292311425
 30
0.0
 11
360.343755013
 21
55.5292316268
 31
0.0
  0
LINE
  5
C3
330
1F
100
AcDbEntity
  8
0
  6
Continuous
 62
     7
370
    15
100
AcDbLine
 10
360.343755013
 20
55.5292316268
 30
0.0
 11
356.6437519851
 21
55.5292316268
 31
0.0
  0
ARC
  5
C4
330
1F
100
AcDbEntity
  8
0
  6
Continuous
 62
     7
370
    15
100
AcDbCircle
 10
439.1437536242
 20
182.5292314778
 30
0.0
 40
0.9999999999999147
100
AcDbArc
 50
270.0
 51
90.0
  0
LINE
  5
C5
330
1F
100
AcDbEntity
  8
0
  6
Continuous
 62
     7
370
    15
100
AcDbLine
 10
439.1437589887
 20
183.5292339812
 30
0.0
 11
437.1437549355
 21
183.5292339812
 31
0.0
  0
ARC
  5
C6
330
1F
100
AcDbEntity
  8
0
  6
Continuous
 62
     7
370
    15
100
AcDbCircle
 10
437.1437536242
 20
182.5292314778
 30
0.0
 40
0.9999999999999716
100
AcDbArc
 50
90.0
 51
270.0
  0
LINE
  5
C7
330
1F
100
AcDbEntity
  8
0
  6
Continuous
 62
     7
370
    15
100
AcDbLine
 10
437.1437549355
 20
181.5292299281
 30
0.0
 11
439.1437589887
 21
181.5292299281
 31
0.0
  0
ARC
  5
C8
330
1F
100
AcDbEntity
  8
0
  6
Continuous
 62
     7
370
    15
100
AcDbCircle
 10
428.861810588
 20
108.4675278062
 30
0.0
 40
0.9999999999999983
100
AcDbArc
 50
339.7673874833
 51
159.7673874833
  0
LINE
  5
C9
330
1F
100
AcDbEntity
  8
0
  6
Continuous
 62
     7
370
    15
100
AcDbLine
 10
427.9235124352
 20
108.813358892
 30
0.0
 11
427.2318526867
 21
106.9367662559
 31
0.0
  0
ARC
  5
CA
330
1F
100
AcDbEntity
  8
0
  6
Continuous
 62
     7
370
    15
100
AcDbCircle
 10
428.1701459294
 20
106.5909351493
 30
0.0
 40
0.9999999999999696
100
AcDbArc
 50
159.7673874833
 51
339.7673874833
  0
LINE
  5
CB
330
1F
100
AcDbEntity
  8
0
  6
Continuous
 62
     7
370
    15
100
AcDbLine
 10
429.1084453228
 20
106.2451065073
 30
0.0
 11
429.8001050713
 21
108.1216991435
 31
0.0
  0
ARC
  5
CC
330
1F
100
AcDbEntity
  8
0
  6
Continuous
 62
     7
370
    15
100
AcDbCircle
 10
380.1437536242
 20
157.5292314778
 30
0.0
 40
1.0
100
AcDbArc
 50
0.0
 51
180.0
  0
LINE
  5
CD
330
1F
100
AcDbEntity
  8
0
  6
Continuous
 62
     7
370
    15
100
AcDbLine
 10
379.1437566045
 20
157.5292259942
 30
0.0
 11
379.1437566045
 21
155.5292368422
 31
0.0
  0
ARC
  5
CE
330
1F
100
AcDbEntity
  8
0
  6
Continuous
 62
     7
370
    15
100
AcDbCircle
 10
380.1437536242
 20
155.5292314778
 30
0.0
 40
1.0
100
AcDbArc
 50
180.0
 51
0.0
  0
LINE
  5
CF
330
1F
100
AcDbEntity
  8
0
  6
Continuous
 62
     7
370
    15
100
AcDbLine
 10
381.143753207
 20
155.5292368422
 30
0.0
 11
381.143753207
 21
157.5292259942
 31
0.0
  0
LINE
  5
D0
330
1F
100
AcDbEntity
  8
0
  6
Continuous
 62
     7
370
    15
100
AcDbLine
 10
356.6437519851
 20
155.5292368422
 30
0.0
 11
356.6437519851
 21
135.5292335639
 31
0.0
  0
LINE
  5
D1
330
1F
100
AcDbEntity
  8
0
  6
Continuous
 62
     7
370
    15
100
AcDbLine
 10
356.6437519851
 20
135.5292335639
 30
0.0
 11
360.343755013
 21
135.5292335639
 31
0.0
  0
LINE
  5
D2
330
1F
100
AcDbEntity
  8
0
  6
Continuous
 62
     7
370
    15
100
AcDbLine
 10
360.343755013
 20
135.5292335639
 30
0.0
 11
360.343755013
 21
155.5292368422
 31
0.0
  0
LINE
  5
D3
330
1F
100
AcDbEntity
  8
0
  6
Continuous
 62
     7
370
    15
100
AcDbLine
 10
360.343755013
 20
155.5292368422
 30
0.0
 11
356.6437519851
 21
155.5292368422
 31
0.0
  0
LINE
  5
D4
330
1F
100
AcDbEntity
  8
0
  6
Continuous
 62
     7
370
    15
100
AcDbLine
 10
324.6437541905
 20
135.5292335639
 30
0.0
 11
324.6437541905
 21
155.5292368422
 31
0.0
  0
LINE
  5
D5
330
1F
100
AcDbEntity
  8
0
  6
Continuous
 62
     7
370
    15
100
AcDbLine
 10
324.6437541905
 20
155.5292368422
 30
0.0
 11
320.9437530252
 21
155.5292368422
 31
0.0
  0
LINE
  5
D6
330
1F
100
AcDbEntity
  8
0
  6
Continuous
 62
     7
370
    15
100
AcDbLine
 10
320.9437530252
 20
155.5292368422
 30
0.0
 11
320.9437530252
 21
135.5292335639
 31
0.0
  0
LINE
  5
D7
330
1F
100
AcDbEntity
  8
0
  6
Continuous
 62
     7
370
    15
100
AcDbLine
 10
320.9437530252
 20
135.5292335639
 30
0.0
 11
324.6437541905
 21
135.5292335639
 31
0.0
  0
LINE
  5
D8
330
1F
100
AcDbEntity
  8
0
  6
Continuous
 62
     7
370
    15
100
AcDbLine
 10
435.6437593463
 20
187.5292271862
 30
0.0
 11
433.1437468293
 21
187.5292271862
 31
0.0
  0
ARC
  5
D9
330
1F
100
AcDbEntity
  8
0
  6
Continuous
 62
     7
370
    15
100
AcDbCircle
 10
438.1437536242
 20
191.8593584967
 30
0.0
 40
5.000000000000041
100
AcDbArc
 50
240.0
 51
300.0
  0
LINE
  5
DA
330
1F
100
AcDbEntity
  8
0
  6
Continuous
 62
     7
370
    15
100
AcDbLine
 10
443.1437521937
 20
187.5292271862
 30
0.0
 11
440.6437545779
 21
187.5292271862
 31
0.0
  0
ARC
  5
DB
330
1F
100
AcDbEntity
  8
0
  6
Continuous
 62
     7
370
    15
100
AcDbCircle
 10
443.1437536242
 20
182.5292314778
 30
0.0
 40
5.0
100
AcDbArc
 50
0.0
 51
90.0
  0
LINE
  5
DC
330
1F
100
AcDbEntity
  8
0
  6
Continuous
 62
     7
370
    15
100
AcDbLine
 10
448.1437474254
 20
179.5292258749
 30
0.0
 11
448.1437474254
 21
182.5292319546
 31
0.0
  0
LINE
  5
DD
330
1F
100
AcDbEntity
  8
0
  6
Continuous
 62
     7
370
    15
100
AcDbLine
 10
444.4437592986
 20
179.5292258749
 30
0.0
 11
448.1437474254
 21
179.5292258749
 31
0.0
  0
LINE
  5
DE
330
1F
100
AcDbEntity
  8
0
  6
Continuous
 62
     7
370
    15
100
AcDbLine
 10
444.4437592986
 20
159.5292300473
 30
0.0
 11
444.4437592986
 21
179.5292258749
 31
0.0
  0
LINE
  5
DF
330
1F
100
AcDbEntity
  8
0
  6
Continuous
 62
     7
370
    15
100
AcDbLine
 10
448.1437474254
 20
159.5292300473
 30
0.0
 11
444.4437592986
 21
159.5292300473
 31
0.0
  0
LINE
  5
E0
330
1F
100
AcDbEntity
  8
0
  6
Continuous
 62
     7
370
    15
100
AcDbLine
 10
448.1437474254
 20
79.5292318354
 30
0.0
 11
448.1437474254
 21
159.5292300473
 31
0.0
  0
LINE
  5
E1
330
1F
100
AcDbEntity
  8
0
  6
Continuous
 62
     7
370
    15
100
AcDbLine
 10
444.4437592986
 20
79.5292318354
 30
0.0
 11
448.1437474254
 21
79.5292318354
 31
0.0
  0
LINE
  5
E2
330
1F
100
AcDbEntity
  8
0
  6
Continuous
 62
     7
370
    15
100
AcDbLine
 10
444.4437592986
 20
59.5292322824
 30
0.0
 11
444.4437592986
 21
79.5292318354
 31
0.0
  0
LINE
  5
E3
330
1F
100
AcDbEntity
  8
0
  6
Continuous
 62
     7
370
    15
100
AcDbLine
 10
448.1437474254
 20
59.5292322824
 30
0.0
 11
444.4437592986
 21
59.5292322824
 31
0.0
  0
LINE
  5
E4
330
1F
100
AcDbEntity
  8
0
  6
Continuous
 62
     7
370
    15
100
AcDbLine
 10
448.1437474254
 20
17.5292314517
 30
0.0
 11
448.1437474254
 21
59.5292322824
 31
0.0
  0
ARC
  5
E5
330
1F
100
AcDbEntity
  8
0
  6
Continuous
 62
     7
370
    15
100
AcDbCircle
 10
433.1437536242
 20
17.5292314778
 30
0.0
 40
15.00000000000001
100
AcDbArc
 50
270.0
 51
0.0
  0
LINE
  5
E6
330
1F
100
AcDbEntity
  8
0
  6
Continuous
 62
     7
370
    15
100
AcDbLine
 10
398.1437504056
 20
2.5292322526
 30
0.0
 11
433.1437468293
 21
2.5292322526
 31
0.0
  0
ARC
  5
E7
330
1F
100
AcDbEntity
  8
0
  6
Continuous
 62
     7
370
    15
100
AcDbCircle
 10
398.1437536242
 20
17.5292314778
 30
0.0
 40
15.00000000000001
100
AcDbArc
 50
223.017540334
 51
270.0
  0
ARC
  5
E8
330
1F
100
AcDbEntity
  8
0
  6
Continuous
 62
     7
370
    15
100
AcDbCircle
 10
365.2422339025
 20
-13.1707685222
 30
0.0
 40
30.0
100
AcDbArc
 50
43.017540334
 51
90.0
  0
LINE
  5
E9
330
1F
100
AcDbEntity
  8
0
  6
Continuous
 62
     7
370
    15
100
AcDbLine
 10
314.1437534007
 20
16.8292314767
 30
0.0
 11
365.2422323587
 21
16.8292314767
 31
0.0
  0
LINE
  5
EA
330
1F
100
AcDbEntity
  8
0
  6
Continuous
 62
     7
370
    15
100
AcDbLine
 10
314.1437534007
 20
20.5292314778
 30
0.0
 11
314.1437534007
 21
16.8292314767
 31
0.0
  0
LINE
  5
EB
330
1F
100
AcDbEntity
  8
0
  6
Continuous
 62
     7
370
    15
100
AcDbLine
 10
294.1437538478
 20
20.5292314778
 30
0.0
 11
314.1437534007
 21
20.5292314778
 31
0.0
  0
LINE
  5
EC
330
1F
100
AcDbEntity
  8
0
  6
Continuous
 62
     7
370
    15
100
AcDbLine
 10
294.1437538478
 20
20.5292314778
 30
0.0
 11
294.1437538478
 21
16.8292314767
 31
0.0
  0
LINE
  5
ED
330
1F
100
AcDbEntity
  8
0
  6
Continuous
 62
     7
370
    15
100
AcDbLine
 10
294.1437538478
 20
16.8292314767
 30
0.0
 11
243.0452748897
 21
16.8292314767
 31
0.0
  0
ARC
  5
EE
330
1F
100
AcDbEntity
  8
0
  6
Continuous
 62
     7
370
    15
100
AcDbCircle
 10
243.045273346
 20
-13.1707685222
 30
0.0
 40
30.0
100
AcDbArc
 50
90.0
 51
136.982459666
  0
ARC
  5
EF
330
1F
100
AcDbEntity
  8
0
  6
Continuous
 62
     7
370
    15
100
AcDbCircle
 10
210.1437536242
 20
17.5292314778
 30
0.0
 40
15.00000000000001
100
AcDbArc
 50
270.0
 51
316.982459666
  0
LINE
  5
F0
330
1F
100
AcDbEntity
  8
0
  6
Continuous
 62
     7
370
    15
100
AcDbLine
 10
210.1437568429
 20
2.5292322526
 30
0.0
 11
175.1437604192
 21
2.5292322526
 31
0.0
  0
ARC
  5
F1
330
1F
100
AcDbEntity
  8
0
  6
Continuous
 62
     7
370
    15
100
AcDbCircle
 10
175.1437536242
 20
17.5292314778
 30
0.0
 40
15.00000000000003
100
AcDbArc
 50
180.0
 51
270.0
  0
LINE
  5
F2
330
1F
100
AcDbEntity
  8
0
  6
Continuous
 62
     7
370
    15
100
AcDbLine
 10
160.1437598231
 20
17.5292314517
 30
0.0
 11
160.1437598231
 21
59.5292322824
 31
0.0
  0
LINE
  5
F3
330
1F
100
AcDbEntity
  8
0
  6
Continuous
 62
     7
370
    15
100
AcDbLine
 10
160.1437598231
 20
59.5292322824
 30
0.0
 11
163.8437479499
 21
59.5292322824
 31
0.0
  0
LINE
  5
F4
330
1F
100
AcDbEntity
  8
0
  6
Continuous
 62
     7
370
    15
100
AcDbLine
 10
163.8437479499
 20
59.5292322824
 30
0.0
 11
163.8437479499
 21
79.5292318354
 31
0.0
  0
LINE
  5
F5
330
1F
100
AcDbEntity
  8
0
  6
Continuous
 62
     7
370
    15
100
AcDbLine
 10
163.8437479499
 20
79.5292318354
 30
0.0
 11
160.1437598231
 21
79.5292318354
 31
0.0
  0
LINE
  5
F6
330
1F
100
AcDbEntity
  8
0
  6
Continuous
 62
     7
370
    15
100
AcDbLine
 10
160.1437598231
 20
79.5292318354
 30
0.0
 11
160.1437598231
 21
159.5292300473
 31
0.0
  0
LINE
  5
F7
330
1F
100
AcDbEntity
  8
0
  6
Continuous
 62
     7
370
    15
100
AcDbLine
 10
160.1437598231
 20
159.5292300473
 30
0.0
 11
163.8437479499
 21
159.5292300473
 31
0.0
  0
LINE
  5
F8
330
1F
100
AcDbEntity
  8
0
  6
Continuous
 62
     7
370
    15
100
AcDbLine
 10
163.8437479499
 20
159.5292300473
 30
0.0
 11
163.8437479499
 21
179.5292258749
 31
0.0
  0
LINE
  5
F9
330
1F
100
AcDbEntity
  8
0
  6
Continuous
 62
     7
370
    15
100
AcDbLine
 10
163.8437479499
 20
179.5292258749
 30
0.0
 11
160.1437598231
 21
179.5292258749
 31
0.0
  0
LINE
  5
FA
330
1F
100
AcDbEntity
  8
0
  6
Continuous
 62
     7
370
    15
100
AcDbLine
 10
160.1437598231
 20
179.5292258749
 30
0.0
 11
160.1437598231
 21
182.5292319546
 31
0.0
  0
ARC
  5
FB
330
1F
100
AcDbEntity
  8
0
  6
Continuous
 62
     7
370
    15
100
AcDbCircle
 10
165.1437536242
 20
182.5292314778
 30
0.0
 40
5.0
100
AcDbArc
 50
90.0
 51
180.0
  0
LINE
  5
FC
330
1F
100
AcDbEntity
  8
0
  6
Continuous
 62
     7
370
    15
100
AcDbLine
 10
165.1437550548
 20
187.5292271862
 30
0.0
 11
167.6437526706
 21
187.5292271862
 31
0.0
  0
ARC
  5
FD
330
1F
100
AcDbEntity
  8
0
  6
Continuous
 62
     7
370
    15
100
AcDbCircle
 10
170.1437536242
 20
191.8593584967
 30
0.0
 40
5.000000000000041
100
AcDbArc
 50
240.0
 51
300.0
  0
LINE
  5
FE
330
1F
100
AcDbEntity
  8
0
  6
Continuous
 62
     7
370
    15
100
AcDbLine
 10
172.6437479022
 20
187.5292271862
 30
0.0
 11
175.1437604192
 21
187.5292271862
 31
0.0
  0
ARC
  5
FF
330
1F
100
AcDbEntity
  8
0
  6
Continuous
 62
     7
370
    15
100
AcDbCircle
 10
175.1437536242
 20
182.5292314778
 30
0.0
 40
5.000000000000028
100
AcDbArc
 50
0.0
 51
90.0
  0
LINE
  5
100
330
1F
100
AcDbEntity
  8
0
  6
Continuous
 62
     7
370
    15
100
AcDbLine
 10
180.1437556508
 20
182.5292319546
 30
0.0
 11
180.1437556508
 21
159.5292300473
 31
0.0
  0
ARC
  5
101
330
1F
100
AcDbEntity
  8
0
  6
Continuous
 62
     7
370
    15
100
AcDbCircle
 10
184.1437536242
 20
156.5292314778
 30
0.0
 40
5.0
100
AcDbArc
 50
143.1301023542
 51
216.8698976458
  0
LINE
  5
102
330
1F
100
AcDbEntity
  8
0
  6
Continuous
 62
     7
370
    15
100
AcDbLine
 10
180.1437556508
 20
153.5292327891
 30
0.0
 11
180.1437556508
 21
133.466659535
 31
0.0
  0
ARC
  5
103
330
1F
100
AcDbEntity
  8
0
  6
Continuous
 62
     7
370
    15
100
AcDbCircle
 10
250.1437536242
 20
133.4666561765
 30
0.0
 40
70.00000000000004
100
AcDbArc
 50
180.0
 51
197.7763267932
  0
ARC
  5
104
330
1F
100
AcDbEntity
  8
0
  6
Continuous
 62
     7
370
    15
100
AcDbCircle
 10
188.2765427186
 20
110.6639647379
 30
0.0
 40
5.000000000000009
100
AcDbArc
 50
163.3627148709
 51
237.1025101626
  0
ARC
  5
105
330
1F
100
AcDbEntity
  8
0
  6
Continuous
 62
     7
370
    15
100
AcDbCircle
 10
250.1437536242
 20
133.4666561765
 30
0.0
 40
70.00000000000004
100
AcDbArc
 50
202.6888982403
 51
208.1375265744
  0
ARC
  5
106
330
1F
100
AcDbEntity
  8
0
  6
Continuous
 62
     7
370
    15
100
AcDbCircle
 10
201.6437536242
 20
107.5292314778
 30
0.0
 40
15.00000000000001
100
AcDbArc
 50
208.1375265744
 51
331.8624734256
  0
ARC
  5
107
330
1F
100
AcDbEntity
  8
0
  6
Continuous
 62
     7
370
    15
100
AcDbCircle
 10
153.1437536242
 20
133.4666561765
 30
0.0
 40
70.00000000000003
100
AcDbArc
 50
331.8624734256
 51
337.3111017597
  0
ARC
  5
108
330
1F
100
AcDbEntity
  8
0
  6
Continuous
 62
     7
370
    15
100
AcDbCircle
 10
215.0109645299
 20
110.6639647379
 30
0.0
 40
5.000000000000002
100
AcDbArc
 50
302.8974898374
 51
16.6372851291
  0
ARC
  5
109
330
1F
100
AcDbEntity
  8
0
  6
Continuous
 62
     7
370
    15
100
AcDbCircle
 10
153.1437536242
 20
133.4666561765
 30
0.0
 40
70.00000000000003
100
AcDbArc
 50
342.2236732068
 51
0.0
  0
LINE
  5
10A
330
1F
100
AcDbEntity
  8
0
  6
Continuous
 62
     7
370
    15
100
AcDbLine
 10
223.1437533858
 20
133.466659535
 30
0.0
 11
223.1437533858
 21
153.5292327891
 31
0.0
  0
ARC
  5
10B
330
1F
100
AcDbEntity
  8
0
  6
Continuous
 62
     7
370
    15
100
AcDbCircle
 10
219.1437536242
 20
156.5292314778
 30
0.0
 40
5.000000000000023
100
AcDbArc
 50
323.1301023542
 51
36.8698976458
  0
LINE
  5
10C
330
1F
100
AcDbEntity
  8
0
  6
Continuous
 62
     7
370
    15
100
AcDbLine
 10
223.1437533858
 20
159.5292300473
 30
0.0
 11
223.1437533858
 21
182.5292319546
 31
0.0
  0
ARC
  5
10D
330
1F
100
AcDbEntity
  8
0
  6
Continuous
 62
     7
370
    15
100
AcDbCircle
 10
228.1437536242
 20
182.5292314778
 30
0.0
 40
5.0
100
AcDbArc
 50
90.0
 51
180.0
  0
LINE
  5
10E
330
1F
100
AcDbEntity
  8
0
  6
Continuous
 62
     7
370
    15
100
AcDbLine
 10
228.143756068
 20
187.5292271862
 30
0.0
 11
230.6437536838
 21
187.5292271862
 31
0.0
  0
ARC
  5
10F
330
1F
100
AcDbEntity
  8
0
  6
Continuous
 62
     7
370
    15
100
AcDbCircle
 10
233.1437536242
 20
191.8593584967
 30
0.0
 40
5.000000000000041
100
AcDbArc
 50
240.0
 51
300.0
  0
LINE
  5
110
330
1F
100
AcDbEntity
  8
0
  6
Continuous
 62
     7
370
    15
100
AcDbLine
 10
235.6437563661
 20
187.5292271862
 30
0.0
 11
236.1437499288
 21
187.5292271862
 31
0.0
  0
ARC
  5
111
330
1F
100
AcDbEntity
  8
0
  6
Continuous
 62
     7
370
    15
100
AcDbCircle
 10
236.1437536242
 20
181.5292314778
 30
0.0
 40
6.0
100
AcDbArc
 50
0.0
 51
90.0
  0
LINE
  5
112
330
1F
100
AcDbEntity
  8
0
  6
Continuous
 62
     7
370
    15
100
AcDbLine
 10
242.1437546375
 20
181.5292299281
 30
0.0
 11
242.1437546375
 21
178.5292387495
 31
0.0
  0
ARC
  5
113
330
1F
100
AcDbEntity
  8
0
  6
Continuous
 62
     7
370
    15
100
AcDbCircle
 10
250.1437536242
 20
178.5292314778
 30
0.0
 40
8.000000000000057
100
AcDbArc
 50
180.0
 51
270.0
  0
LINE
  5
114
330
1F
100
AcDbEntity
  8
0
  6
Continuous
 62
     7
370
    15
100
AcDbLine
 10
358.143755025
 20
170.5292374382
 30
0.0
 11
250.1437522235
 21
170.5292374382
 31
0.0
  0
ARC
  5
115
330
1F
100
AcDbEntity
  8
0
  6
Continuous
 62
     7
370
    15
100
AcDbCircle
 10
358.1437536242
 20
178.5292314778
 30
0.0
 40
8.000000000000057
100
AcDbArc
 50
270.0
 51
0.0
  0
LINE
  5
116
330
1F
100
AcDbEntity
  8
0
  6
Continuous
 62
     7
370
    15
100
AcDbLine
 10
366.143752611
 20
181.5292299281
 30
0.0
 11
366.143752611
 21
178.5292387495
 31
0.0
  0
ARC
  5
117
330
1F
100
AcDbEntity
  8
0
  6
Continuous
 62
     7
370
    15
100
AcDbCircle
 10
372.1437536242
 20
181.5292314778
 30
0.0
 40
6.0
100
AcDbArc
 50
90.0
 51
180.0
  0
LINE
  5
118
330
1F
100
AcDbEntity
  8
0
  6
Continuous
 62
     7
370
    15
100
AcDbLine
 10
372.6437508824
 20
187.5292271862
 30
0.0
 11
372.1437573197
 21
187.5292271862
 31
0.0
  0
ARC
  5
119
330
1F
100
AcDbEntity
  8
0
  6
Continuous
 62
     7
370
    15
100
AcDbCircle
 10
375.1437536242
 20
191.8593584967
 30
0.0
 40
5.000000000000041
100
AcDbArc
 50
240.0
 51
300.0
  0
LINE
  5
11A
330
1F
100
AcDbEntity
  8
0
  6
Continuous
 62
     7
370
    15
100
AcDbLine
 10
380.1437511805
 20
187.5292271862
 30
0.0
 11
377.6437535646
 21
187.5292271862
 31
0.0
  0
ARC
  5
11B
330
1F
100
AcDbEntity
  8
0
  6
Continuous
 62
     7
370
    15
100
AcDbCircle
 10
380.1437536242
 20
182.5292314778
 30
0.0
 40
5.0
100
AcDbArc
 50
0.0
 51
90.0
  0
LINE
  5
11C
330
1F
100
AcDbEntity
  8
0
  6
Continuous
 62
     7
370
    15
100
AcDbLine
 10
385.1437538627
 20
159.5292300473
 30
0.0
 11
385.1437538627
 21
182.5292319546
 31
0.0
  0
ARC
  5
11D
330
1F
100
AcDbEntity
  8
0
  6
Continuous
 62
     7
370
    15
100
AcDbCircle
 10
389.1437536242
 20
156.5292314778
 30
0.0
 40
5.0
100
AcDbArc
 50
143.1301023542
 51
216.8698976458
  0
LINE
  5
11E
330
1F
100
AcDbEntity
  8
0
  6
Continuous
 62
     7
370
    15
100
AcDbLine
 10
385.1437538627
 20
133.466659535
 30
0.0
 11
385.1437538627
 21
153.5292327891
 31
0.0
  0
ARC
  5
11F
330
1F
100
AcDbEntity
  8
0
  6
Continuous
 62
     7
370
    15
100
AcDbCircle
 10
455.1437536242
 20
133.4666561765
 30
0.0
 40
70.00000000000006
100
AcDbArc
 50
180.0
 51
197.7763267932
  0
ARC
  5
120
330
1F
100
AcDbEntity
  8
0
  6
Continuous
 62
     7
370
    15
100
AcDbCircle
 10
393.2765427186
 20
110.6639647379
 30
0.0
 40
4.999999999999971
100
AcDbArc
 50
163.3627148709
 51
237.1025101626
  0
ARC
  5
121
330
1F
100
AcDbEntity
  8
0
  6
Continuous
 62
     7
370
    15
100
AcDbCircle
 10
455.1437536242
 20
133.4666561765
 30
0.0
 40
70.00000000000003
100
AcDbArc
 50
202.6888982403
 51
208.1375265744
  0
ARC
  5
122
330
1F
100
AcDbEntity
  8
0
  6
Continuous
 62
     7
370
    15
100
AcDbCircle
 10
406.6437536242
 20
107.5292314778
 30
0.0
 40
15.00000000000003
100
AcDbArc
 50
208.1375265744
 51
331.8624734256
  0
ARC
  5
123
330
1F
100
AcDbEntity
  8
0
  6
Continuous
 62
     7
370
    15
100
AcDbCircle
 10
358.1437536242
 20
133.4666561765
 30
0.0
 40
70.00000000000003
100
AcDbArc
 50
331.8624734256
 51
337.3111017597
  0
ARC
  5
124
330
1F
100
AcDbEntity
  8
0
  6
Continuous
 62
     7
370
    15
100
AcDbCircle
 10
420.0109645299
 20
110.6639647379
 30
0.0
 40
5.000000000000009
100
AcDbArc
 50
302.8974898374
 51
16.6372851291
  0
ARC
  5
125
330
1F
100
AcDbEntity
  8
0
  6
Continuous
 62
     7
370
    15
100
AcDbCircle
 10
358.1437536242
 20
133.4666561765
 30
0.0
 40
70.00000000000006
100
AcDbArc
 50
342.2236732068
 51
0.0
  0
LINE
  5
126
330
1F
100
AcDbEntity
  8
0
  6
Continuous
 62
     7
370
    15
100
AcDbLine
 10
428.1437515977
 20
153.5292327891
 30
0.0
 11
428.1437515977
 21
133.466659535
 31
0.0
  0
ARC
  5
127
330
1F
100
AcDbEntity
  8
0
  6
Continuous
 62
     7
370
    15
100
AcDbCircle
 10
424.1437536242
 20
156.5292314778
 30
0.0
 40
5.0
100
AcDbArc
 50
323.1301023542
 51
36.8698976458
  0
LINE
  5
128
330
1F
100
AcDbEntity
  8
0
  6
Continuous
 62
     7
370
    15
100
AcDbLine
 10
428.1437515977
 20
182.5292319546
 30
0.0
 11
428.1437515977
 21
159.5292300473
 31
0.0
  0
ARC
  5
129
330
1F
100
AcDbEntity
  8
0
  6
Continuous
 62
     7
370
    15
100
AcDbCircle
 10
433.1437536242
 20
182.5292314778
 30
0.0
 40
5.0
100
AcDbArc
 50
90.0
 51
180.0
  0
LINE
  5
12A
330
1F
100
AcDbEntity
  8
0
  6
Continuous
 62
     7
370
    15
100
AcDbLine
 10
324.6437541905
 20
35.5292311425
 30
0.0
 11
324.6437541905
 21
55.5292316268
 31
0.0
  0
LINE
  5
12B
330
1F
100
AcDbEntity
  8
0
  6
Continuous
 62
     7
370
    15
100
AcDbLine
 10
324.6437541905
 20
55.5292316268
 30
0.0
 11
320.9437530252
 21
55.5292316268
 31
0.0
  0
LINE
  5
12C
330
1F
100
AcDbEntity
  8
0
  6
Continuous
 62
     7
370
    15
100
AcDbLine
 10
320.9437530252
 20
55.5292316268
 30
0.0
 11
320.9437530252
 21
35.5292311425
 31
0.0
  0
LINE
  5
12D
330
1F
100
AcDbEntity
  8
0
  6
Continuous
 62
     7
370
    15
100
AcDbLine
 10
320.9437530252
 20
35.5292311425
 30
0.0
 11
324.6437541905
 21
35.5292311425
 31
0.0
  0
ARC
  5
12E
330
1F
100
AcDbEntity
  8
0
  6
Continuous
 62
     7
370
    15
100
AcDbCircle
 10
433.1437536242
 20
157.5292314778
 30
0.0
 40
1.0
100
AcDbArc
 50
0.0
 51
180.0
  0
LINE
  5
12F
330
1F
100
AcDbEntity
  8
0
  6
Continuous
 62
     7
370
    15
100
AcDbLine
 10
432.1437597039
 20
157.5292259942
 30
0.0
 11
432.1437597039
 21
155.5292368422
 31
0.0
  0
ARC
  5
130
330
1F
100
AcDbEntity
  8
0
  6
Continuous
 62
     7
370
    15
100
AcDbCircle
 10
433.1437536242
 20
155.5292314778
 30
0.0
 40
1.0
100
AcDbArc
 50
180.0
 51
0.0
  0
LINE
  5
131
330
1F
100
AcDbEntity
  8
0
  6
Continuous
 62
     7
370
    15
100
AcDbLine
 10
434.1437488559
 20
155.5292368422
 30
0.0
 11
434.1437488559
 21
157.5292259942
 31
0.0
  0
ARC
  5
132
330
1F
100
AcDbEntity
  8
0
  6
Continuous
 62
     7
370
    15
100
AcDbCircle
 10
384.4256966605
 20
108.4675278062
 30
0.0
 40
1.000000000000008
100
AcDbArc
 50
20.2326125167
 51
200.2326125167
  0
LINE
  5
133
330
1F
100
AcDbEntity
  8
0
  6
Continuous
 62
     7
370
    15
100
AcDbLine
 10
383.487400389
 20
108.1216991435
 30
0.0
 11
384.1790675881
 21
106.2451065073
 31
0.0
  0
ARC
  5
134
330
1F
100
AcDbEntity
  8
0
  6
Continuous
 62
     7
370
    15
100
AcDbCircle
 10
385.1173613191
 20
106.5909351493
 30
0.0
 40
1.000000000000033
100
AcDbArc
 50
200.2326125167
 51
20.2326125167
  0
LINE
  5
135
330
1F
100
AcDbEntity
  8
0
  6
Continuous
 62
     7
370
    15
100
AcDbLine
 10
386.0556602242
 20
106.9367662559
 30
0.0
 11
385.3639930251
 21
108.813358892
 31
0.0
  0
ARC
  5
136
330
1F
100
AcDbEntity
  8
0
  6
Continuous
 62
     7
370
    15
100
AcDbCircle
 10
374.1437536242
 20
182.5292314778
 30
0.0
 40
0.9999999999999716
100
AcDbArc
 50
90.0
 51
270.0
  0
LINE
  5
137
330
1F
100
AcDbEntity
  8
0
  6
Continuous
 62
     7
370
    15
100
AcDbLine
 10
374.1437539223
 20
181.5292299281
 30
0.0
 11
376.1437505248
 21
181.5292299281
 31
0.0
  0
ARC
  5
138
330
1F
100
AcDbEntity
  8
0
  6
Continuous
 62
     7
370
    15
100
AcDbCircle
 10
376.1437536242
 20
182.5292314778
 30
0.0
 40
0.9999999999999716
100
AcDbArc
 50
270.0
 51
90.0
  0
LINE
  5
139
330
1F
100
AcDbEntity
  8
0
  6
Continuous
 62
     7
370
    15
100
AcDbLine
 10
376.1437505248
 20
183.5292339812
 30
0.0
 11
374.1437539223
 21
183.5292339812
 31
0.0
  0
LINE
  5
13A
330
1F
100
AcDbEntity
  8
0
  6
Continuous
 62
     7
370
    15
100
AcDbLine
 10
416.643750644
 20
16.8292314767
 30
0.0
 11
416.643750644
 21
20.5292314778
 31
0.0
  0
LINE
  5
13B
330
1F
100
AcDbEntity
  8
0
  6
Continuous
 62
     7
370
    15
100
AcDbLine
 10
416.643750644
 20
20.5292314778
 30
0.0
 11
396.6437548163
 21
20.5292314778
 31
0.0
  0
LINE
  5
13C
330
1F
100
AcDbEntity
  8
0
  6
Continuous
 62
     7
370
    15
100
AcDbLine
 10
396.6437548163
 20
20.5292314778
 30
0.0
 11
396.6437548163
 21
16.8292314767
 31
0.0
  0
LINE
  5
13D
330
1F
100
AcDbEntity
  8
0
  6
Continuous
 62
     7
370
    15
100
AcDbLine
 10
396.6437548163
 20
16.8292314767
 30
0.0
 11
416.643750644
 21
16.8292314767
 31
0.0
  0
LINE
  5
13E
330
1F
100
AcDbEntity
  8
0
  6
Continuous
 62
     7
370
    15
100
AcDbLine
 10
575.8371646941
 20
155.3749656824
 30
0.0
 11
579.5371658594
 21
155.3749656824
 31
0.0
  0
LINE
  5
13F
330
1F
100
AcDbEntity
  8
0
  6
Continuous
 62
     7
370
    15
100
AcDbLine
 10
575.8371646941
 20
135.3749624041
 30
0.0
 11
575.8371646941
 21
155.3749656824
 31
0.0
  0
LINE
  5
140
330
1F
100
AcDbEntity
  8
0
  6
Continuous
 62
     7
370
    15
100
AcDbLine
 10
579.5371658594
 20
135.3749624041
 30
0.0
 11
575.8371646941
 21
135.3749624041
 31
0.0
  0
LINE
  5
141
330
1F
100
AcDbEntity
  8
0
  6
Continuous
 62
     7
370
    15
100
AcDbLine
 10
579.5371658594
 20
155.3749656824
 30
0.0
 11
579.5371658594
 21
135.3749624041
 31
0.0
  0
LINE
  5
142
330
1F
100
AcDbEntity
  8
0
  6
Continuous
 62
     7
370
    15
100
AcDbLine
 10
575.8371646941
 20
55.374960467
 30
0.0
 11
579.5371658594
 21
55.374960467
 31
0.0
  0
LINE
  5
143
330
1F
100
AcDbEntity
  8
0
  6
Continuous
 62
     7
370
    15
100
AcDbLine
 10
575.8371646941
 20
35.3749599827
 30
0.0
 11
575.8371646941
 21
55.374960467
 31
0.0
  0
LINE
  5
144
330
1F
100
AcDbEntity
  8
0
  6
Continuous
 62
     7
370
    15
100
AcDbLine
 10
579.5371658594
 20
35.3749599827
 30
0.0
 11
575.8371646941
 21
35.3749599827
 31
0.0
  0
LINE
  5
145
330
1F
100
AcDbEntity
  8
0
  6
Continuous
 62
     7
370
    15
100
AcDbLine
 10
579.5371658594
 20
55.374960467
 30
0.0
 11
579.5371658594
 21
35.3749599827
 31
0.0
  0
LINE
  5
146
330
1F
100
AcDbEntity
  8
0
  6
Continuous
 62
     7
370
    15
100
AcDbLine
 10
543.8371668995
 20
135.3749624041
 30
0.0
 11
540.1371638716
 21
135.3749624041
 31
0.0
  0
LINE
  5
147
330
1F
100
AcDbEntity
  8
0
  6
Continuous
 62
     7
370
    15
100
AcDbLine
 10
543.8371668995
 20
155.3749656824
 30
0.0
 11
543.8371668995
 21
135.3749624041
 31
0.0
  0
LINE
  5
148
330
1F
100
AcDbEntity
  8
0
  6
Continuous
 62
     7
370
    15
100
AcDbLine
 10
540.1371638716
 20
155.3749656824
 30
0.0
 11
543.8371668995
 21
155.3749656824
 31
0.0
  0
LINE
  5
149
330
1F
100
AcDbEntity
  8
0
  6
Continuous
 62
     7
370
    15
100
AcDbLine
 10
540.1371638716
 20
135.3749624041
 30
0.0
 11
540.1371638716
 21
155.3749656824
 31
0.0
  0
LINE
  5
14A
330
1F
100
AcDbEntity
  8
0
  6
Continuous
 62
     7
370
    15
100
AcDbLine
 10
468.3371591807
 20
157.3749548343
 30
0.0
 11
468.3371591807
 21
155.3749656824
 31
0.0
  0
ARC
  5
14B
330
1F
100
AcDbEntity
  8
0
  6
Continuous
 62
     7
370
    15
100
AcDbCircle
 10
467.3371652603
 20
157.374960318
 30
0.0
 40
1.0
100
AcDbArc
 50
0.0
 51
180.0
  0
LINE
  5
14C
330
1F
100
AcDbEntity
  8
0
  6
Continuous
 62
     7
370
    15
100
AcDbLine
 10
466.3371700287
 20
155.3749656824
 30
0.0
 11
466.3371700287
 21
157.3749548343
 31
0.0
  0
ARC
  5
14D
330
1F
100
AcDbEntity
  8
0
  6
Continuous
 62
     7
370
    15
100
AcDbCircle
 10
467.3371652603
 20
155.374960318
 30
0.0
 40
1.0
100
AcDbArc
 50
180.0
 51
0.0
  0
LINE
  5
14E
330
1F
100
AcDbEntity
  8
0
  6
Continuous
 62
     7
370
    15
100
AcDbLine
 10
521.3371622801
 20
157.3749548343
 30
0.0
 11
521.3371622801
 21
155.3749656824
 31
0.0
  0
ARC
  5
14F
330
1F
100
AcDbEntity
  8
0
  6
Continuous
 62
     7
370
    15
100
AcDbCircle
 10
520.3371652603
 20
157.374960318
 30
0.0
 40
1.0
100
AcDbArc
 50
0.0
 51
180.0
  0
LINE
  5
150
330
1F
100
AcDbEntity
  8
0
  6
Continuous
 62
     7
370
    15
100
AcDbLine
 10
519.3371656776
 20
155.3749656824
 30
0.0
 11
519.3371656776
 21
157.3749548343
 31
0.0
  0
ARC
  5
151
330
1F
100
AcDbEntity
  8
0
  6
Continuous
 62
     7
370
    15
100
AcDbCircle
 10
520.3371652603
 20
155.374960318
 30
0.0
 40
1.0
100
AcDbArc
 50
180.0
 51
0.0
  0
LINE
  5
152
330
1F
100
AcDbEntity
  8
0
  6
Continuous
 62
     7
370
    15
100
AcDbLine
 10
516.9935184956
 20
107.9674279836
 30
0.0
 11
516.3018512965
 21
106.0908353475
 31
0.0
  0
ARC
  5
153
330
1F
100
AcDbEntity
  8
0
  6
Continuous
 62
     7
370
    15
100
AcDbCircle
 10
516.0552222241
 20
108.3132566464
 30
0.0
 40
1.000000000000066
100
AcDbArc
 50
339.7673874833
 51
159.7673874833
  0
LINE
  5
154
330
1F
100
AcDbEntity
  8
0
  6
Continuous
 62
     7
370
    15
100
AcDbLine
 10
514.4252586603
 20
106.7824950961
 30
0.0
 11
515.1169258595
 21
108.6590877322
 31
0.0
  0
ARC
  5
155
330
1F
100
AcDbEntity
  8
0
  6
Continuous
 62
     7
370
    15
100
AcDbCircle
 10
515.3635575655
 20
106.4366639895
 30
0.0
 40
0.9999999999999795
100
AcDbArc
 50
159.7673874833
 51
339.7673874833
  0
LINE
  5
156
330
1F
100
AcDbEntity
  8
0
  6
Continuous
 62
     7
370
    15
100
AcDbLine
 10
472.5574064494
 20
108.6590877322
 30
0.0
 11
473.2490661979
 21
106.7824950961
 31
0.0
  0
ARC
  5
157
330
1F
100
AcDbEntity
  8
0
  6
Continuous
 62
     7
370
    15
100
AcDbCircle
 10
471.6191082966
 20
108.3132566464
 30
0.0
 40
0.9999999999999696
100
AcDbArc
 50
20.2326125167
 51
200.2326125167
  0
LINE
  5
158
330
1F
100
AcDbEntity
  8
0
  6
Continuous
 62
     7
370
    15
100
AcDbLine
 10
471.3724735618
 20
106.0908353475
 30
0.0
 11
470.6808138132
 21
107.9674279836
 31
0.0
  0
ARC
  5
159
330
1F
100
AcDbEntity
  8
0
  6
Continuous
 62
     7
370
    15
100
AcDbCircle
 10
472.3107729552
 20
106.4366639895
 30
0.0
 40
0.9999999999999548
100
AcDbArc
 50
200.2326125167
 51
20.2326125167
  0
LINE
  5
15A
330
1F
100
AcDbEntity
  8
0
  6
Continuous
 62
     7
370
    15
100
AcDbLine
 10
526.3371649623
 20
181.3749587682
 30
0.0
 11
524.3371683598
 21
181.3749587682
 31
0.0
  0
ARC
  5
15B
330
1F
100
AcDbEntity
  8
0
  6
Continuous
 62
     7
370
    15
100
AcDbCircle
 10
526.3371652604
 20
182.374960318
 30
0.0
 40
0.9999999999999716
100
AcDbArc
 50
270.0
 51
90.0
  0
LINE
  5
15C
330
1F
100
AcDbEntity
  8
0
  6
Continuous
 62
     7
370
    15
100
AcDbLine
 10
524.3371683598
 20
183.3749628213
 30
0.0
 11
526.3371649623
 21
183.3749628213
 31
0.0
  0
ARC
  5
15D
330
1F
100
AcDbEntity
  8
0
  6
Continuous
 62
     7
370
    15
100
AcDbCircle
 10
524.3371652604
 20
182.374960318
 30
0.0
 40
0.9999999999999716
100
AcDbArc
 50
90.0
 51
270.0
  0
LINE
  5
15E
330
1F
100
AcDbEntity
  8
0
  6
Continuous
 62
     7
370
    15
100
AcDbLine
 10
461.3371598959
 20
183.3749628213
 30
0.0
 11
463.337163949
 21
183.3749628213
 31
0.0
  0
ARC
  5
15F
330
1F
100
AcDbEntity
  8
0
  6
Continuous
 62
     7
370
    15
100
AcDbCircle
 10
461.3371652603
 20
182.374960318
 30
0.0
 40
0.9999999999999716
100
AcDbArc
 50
90.0
 51
270.0
  0
LINE
  5
160
330
1F
100
AcDbEntity
  8
0
  6
Continuous
 62
     7
370
    15
100
AcDbLine
 10
463.337163949
 20
181.3749587682
 30
0.0
 11
461.3371598959
 21
181.3749587682
 31
0.0
  0
ARC
  5
161
330
1F
100
AcDbEntity
  8
0
  6
Continuous
 62
     7
370
    15
100
AcDbCircle
 10
463.3371652603
 20
182.374960318
 30
0.0
 40
0.9999999999999716
100
AcDbArc
 50
270.0
 51
90.0
  0
LINE
  5
162
330
1F
100
AcDbEntity
  8
0
  6
Continuous
 62
     7
370
    15
100
AcDbLine
 10
483.8371682406
 20
20.374960318
 30
0.0
 11
503.8371640683
 21
20.374960318
 31
0.0
  0
LINE
  5
163
330
1F
100
AcDbEntity
  8
0
  6
Continuous
 62
     7
370
    15
100
AcDbLine
 10
483.8371682406
 20
16.6749603168
 30
0.0
 11
483.8371682406
 21
20.374960318
 31
0.0
  0
LINE
  5
164
330
1F
100
AcDbEntity
  8
0
  6
Continuous
 62
     7
370
    15
100
AcDbLine
 10
503.8371640683
 20
16.6749603168
 30
0.0
 11
483.8371682406
 21
16.6749603168
 31
0.0
  0
LINE
  5
165
330
1F
100
AcDbEntity
  8
0
  6
Continuous
 62
     7
370
    15
100
AcDbLine
 10
503.8371640683
 20
20.374960318
 30
0.0
 11
503.8371640683
 21
16.6749603168
 31
0.0
  0
LINE
  5
166
330
1F
100
AcDbEntity
  8
0
  6
Continuous
 62
     7
370
    15
100
AcDbLine
 10
543.8371668995
 20
35.3749599827
 30
0.0
 11
540.1371638716
 21
35.3749599827
 31
0.0
  0
LINE
  5
167
330
1F
100
AcDbEntity
  8
0
  6
Continuous
 62
     7
370
    15
100
AcDbLine
 10
543.8371668995
 20
55.374960467
 30
0.0
 11
543.8371668995
 21
35.3749599827
 31
0.0
  0
LINE
  5
168
330
1F
100
AcDbEntity
  8
0
  6
Continuous
 62
     7
370
    15
100
AcDbLine
 10
540.1371638716
 20
55.374960467
 30
0.0
 11
543.8371668995
 21
55.374960467
 31
0.0
  0
LINE
  5
169
330
1F
100
AcDbEntity
  8
0
  6
Continuous
 62
     7
370
    15
100
AcDbLine
 10
540.1371638716
 20
35.3749599827
 30
0.0
 11
540.1371638716
 21
55.374960467
 31
0.0
  0
LINE
  5
16A
330
1F
100
AcDbEntity
  8
0
  6
Continuous
 62
     7
370
    15
100
AcDbLine
 10
648.8371636212
 20
55.374960467
 30
0.0
 11
648.8371636212
 21
35.3749599827
 31
0.0
  0
LINE
  5
16B
330
1F
100
AcDbEntity
  8
0
  6
Continuous
 62
     7
370
    15
100
AcDbLine
 10
648.8371636212
 20
35.3749599827
 30
0.0
 11
652.5371666491
 21
35.3749599827
 31
0.0
  0
LINE
  5
16C
330
1F
100
AcDbEntity
  8
0
  6
Continuous
 62
     7
370
    15
100
AcDbLine
 10
652.5371666491
 20
35.3749599827
 30
0.0
 11
652.5371666491
 21
55.374960467
 31
0.0
  0
LINE
  5
16D
330
1F
100
AcDbEntity
  8
0
  6
Continuous
 62
     7
370
    15
100
AcDbLine
 10
652.5371666491
 20
55.374960467
 30
0.0
 11
648.8371636212
 21
55.374960467
 31
0.0
  0
ARC
  5
16E
330
1F
100
AcDbEntity
  8
0
  6
Continuous
 62
     7
370
    15
100
AcDbCircle
 10
731.3371652604
 20
182.374960318
 30
0.0
 40
0.9999999999999147
100
AcDbArc
 50
270.0
 51
90.0
  0
LINE
  5
16F
330
1F
100
AcDbEntity
  8
0
  6
Continuous
 62
     7
370
    15
100
AcDbLine
 10
731.3371706248
 20
183.3749628213
 30
0.0
 11
729.3371665716
 21
183.3749628213
 31
0.0
  0
ARC
  5
170
330
1F
100
AcDbEntity
  8
0
  6
Continuous
 62
     7
370
    15
100
AcDbCircle
 10
729.3371652604
 20
182.374960318
 30
0.0
 40
0.9999999999999716
100
AcDbArc
 50
90.0
 51
270.0
  0
LINE
  5
171
330
1F
100
AcDbEntity
  8
0
  6
Continuous
 62
     7
370
    15
100
AcDbLine
 10
729.3371665716
 20
181.3749587682
 30
0.0
 11
731.3371706248
 21
181.3749587682
 31
0.0
  0
ARC
  5
172
330
1F
100
AcDbEntity
  8
0
  6
Continuous
 62
     7
370
    15
100
AcDbCircle
 10
721.0552222241
 20
108.3132566464
 30
0.0
 40
1.000000000000052
100
AcDbArc
 50
339.7673874833
 51
159.7673874833
  0
LINE
  5
173
330
1F
100
AcDbEntity
  8
0
  6
Continuous
 62
     7
370
    15
100
AcDbLine
 10
720.1169240713
 20
108.6590877322
 30
0.0
 11
719.4252643228
 21
106.7824950961
 31
0.0
  0
ARC
  5
174
330
1F
100
AcDbEntity
  8
0
  6
Continuous
 62
     7
370
    15
100
AcDbCircle
 10
720.3635575655
 20
106.4366639895
 30
0.0
 40
1.000000000000062
100
AcDbArc
 50
159.7673874833
 51
339.7673874833
  0
LINE
  5
175
330
1F
100
AcDbEntity
  8
0
  6
Continuous
 62
     7
370
    15
100
AcDbLine
 10
721.3018569589
 20
106.0908353475
 30
0.0
 11
721.9935167075
 21
107.9674279836
 31
0.0
  0
ARC
  5
176
330
1F
100
AcDbEntity
  8
0
  6
Continuous
 62
     7
370
    15
100
AcDbCircle
 10
672.3371652603
 20
157.374960318
 30
0.0
 40
1.0
100
AcDbArc
 50
0.0
 51
180.0
  0
LINE
  5
177
330
1F
100
AcDbEntity
  8
0
  6
Continuous
 62
     7
370
    15
100
AcDbLine
 10
671.3371682406
 20
157.3749548343
 30
0.0
 11
671.3371682406
 21
155.3749656824
 31
0.0
  0
ARC
  5
178
330
1F
100
AcDbEntity
  8
0
  6
Continuous
 62
     7
370
    15
100
AcDbCircle
 10
672.3371652603
 20
155.374960318
 30
0.0
 40
1.0
100
AcDbArc
 50
180.0
 51
0.0
  0
LINE
  5
179
330
1F
100
AcDbEntity
  8
0
  6
Continuous
 62
     7
370
    15
100
AcDbLine
 10
673.3371648431
 20
155.3749656824
 30
0.0
 11
673.3371648431
 21
157.3749548343
 31
0.0
  0
LINE
  5
17A
330
1F
100
AcDbEntity
  8
0
  6
Continuous
 62
     7
370
    15
100
AcDbLine
 10
648.8371636212
 20
155.3749656824
 30
0.0
 11
648.8371636212
 21
135.3749624041
 31
0.0
  0
LINE
  5
17B
330
1F
100
AcDbEntity
  8
0
  6
Continuous
 62
     7
370
    15
100
AcDbLine
 10
648.8371636212
 20
135.3749624041
 30
0.0
 11
652.5371666491
 21
135.3749624041
 31
0.0
  0
LINE
  5
17C
330
1F
100
AcDbEntity
  8
0
  6
Continuous
 62
     7
370
    15
100
AcDbLine
 10
652.5371666491
 20
135.3749624041
 30
0.0
 11
652.5371666491
 21
155.3749656824
 31
0.0
  0
LINE
  5
17D
330
1F
100
AcDbEntity
  8
0
  6
Continuous
 62
     7
370
    15
100
AcDbLine
 10
652.5371666491
 20
155.3749656824
 30
0.0
 11
648.8371636212
 21
155.3749656824
 31
0.0
  0
LINE
  5
17E
330
1F
100
AcDbEntity
  8
0
  6
Continuous
 62
     7
370
    15
100
AcDbLine
 10
616.8371658266
 20
135.3749624041
 30
0.0
 11
616.8371658266
 21
155.3749656824
 31
0.0
  0
LINE
  5
17F
330
1F
100
AcDbEntity
  8
0
  6
Continuous
 62
     7
370
    15
100
AcDbLine
 10
616.8371658266
 20
155.3749656824
 30
0.0
 11
613.1371646613
 21
155.3749656824
 31
0.0
  0
LINE
  5
180
330
1F
100
AcDbEntity
  8
0
  6
Continuous
 62
     7
370
    15
100
AcDbLine
 10
613.1371646613
 20
155.3749656824
 30
0.0
 11
613.1371646613
 21
135.3749624041
 31
0.0
  0
LINE
  5
181
330
1F
100
AcDbEntity
  8
0
  6
Continuous
 62
     7
370
    15
100
AcDbLine
 10
613.1371646613
 20
135.3749624041
 30
0.0
 11
616.8371658266
 21
135.3749624041
 31
0.0
  0
LINE
  5
182
330
1F
100
AcDbEntity
  8
0
  6
Continuous
 62
     7
370
    15
100
AcDbLine
 10
727.8371709824
 20
187.3749560264
 30
0.0
 11
725.3371584654
 21
187.3749560264
 31
0.0
  0
ARC
  5
183
330
1F
100
AcDbEntity
  8
0
  6
Continuous
 62
     7
370
    15
100
AcDbCircle
 10
730.3371652604
 20
191.7050873369
 30
0.0
 40
5.000000000000041
100
AcDbArc
 50
240.0
 51
300.0
  0
LINE
  5
184
330
1F
100
AcDbEntity
  8
0
  6
Continuous
 62
     7
370
    15
100
AcDbLine
 10
735.3371638298
 20
187.3749560264
 30
0.0
 11
732.837166214
 21
187.3749560264
 31
0.0
  0
ARC
  5
185
330
1F
100
AcDbEntity
  8
0
  6
Continuous
 62
     7
370
    15
100
AcDbCircle
 10
735.3371652603
 20
182.374960318
 30
0.0
 40
5.000000000000028
100
AcDbArc
 50
0.0
 51
90.0
  0
LINE
  5
186
330
1F
100
AcDbEntity
  8
0
  6
Continuous
 62
     7
370
    15
100
AcDbLine
 10
740.3371590615
 20
179.3749547151
 30
0.0
 11
740.3371590615
 21
182.3749607948
 31
0.0
  0
LINE
  5
187
330
1F
100
AcDbEntity
  8
0
  6
Continuous
 62
     7
370
    15
100
AcDbLine
 10
736.6371709347
 20
179.3749547151
 30
0.0
 11
740.3371590615
 21
179.3749547151
 31
0.0
  0
LINE
  5
188
330
1F
100
AcDbEntity
  8
0
  6
Continuous
 62
     7
370
    15
100
AcDbLine
 10
736.6371709347
 20
159.3749588874
 30
0.0
 11
736.6371709347
 21
179.3749547151
 31
0.0
  0
LINE
  5
189
330
1F
100
AcDbEntity
  8
0
  6
Continuous
 62
     7
370
    15
100
AcDbLine
 10
740.3371590615
 20
159.3749588874
 30
0.0
 11
736.6371709347
 21
159.3749588874
 31
0.0
  0
LINE
  5
18A
330
1F
100
AcDbEntity
  8
0
  6
Continuous
 62
     7
370
    15
100
AcDbLine
 10
740.3371590615
 20
79.3749606756
 30
0.0
 11
740.3371590615
 21
159.3749588874
 31
0.0
  0
LINE
  5
18B
330
1F
100
AcDbEntity
  8
0
  6
Continuous
 62
     7
370
    15
100
AcDbLine
 10
736.6371709347
 20
79.3749606756
 30
0.0
 11
740.3371590615
 21
79.3749606756
 31
0.0
  0
LINE
  5
18C
330
1F
100
AcDbEntity
  8
0
  6
Continuous
 62
     7
370
    15
100
AcDbLine
 10
736.6371709347
 20
59.3749611226
 30
0.0
 11
736.6371709347
 21
79.3749606756
 31
0.0
  0
LINE
  5
18D
330
1F
100
AcDbEntity
  8
0
  6
Continuous
 62
     7
370
    15
100
AcDbLine
 10
740.3371590615
 20
59.3749611226
 30
0.0
 11
736.6371709347
 21
59.3749611226
 31
0.0
  0
LINE
  5
18E
330
1F
100
AcDbEntity
  8
0
  6
Continuous
 62
     7
370
    15
100
AcDbLine
 10
740.3371590615
 20
17.3749602919
 30
0.0
 11
740.3371590615
 21
59.3749611226
 31
0.0
  0
ARC
  5
18F
330
1F
100
AcDbEntity
  8
0
  6
Continuous
 62
     7
370
    15
100
AcDbCircle
 10
725.3371652603
 20
17.374960318
 30
0.0
 40
15.00000000000001
100
AcDbArc
 50
270.0
 51
0.0
  0
LINE
  5
190
330
1F
100
AcDbEntity
  8
0
  6
Continuous
 62
     7
370
    15
100
AcDbLine
 10
690.3371620417
 20
2.3749610928
 30
0.0
 11
725.3371584654
 21
2.3749610928
 31
0.0
  0
ARC
  5
191
330
1F
100
AcDbEntity
  8
0
  6
Continuous
 62
     7
370
    15
100
AcDbCircle
 10
690.3371652603
 20
17.374960318
 30
0.0
 40
15.00000000000001
100
AcDbArc
 50
223.017540334
 51
270.0
  0
ARC
  5
192
330
1F
100
AcDbEntity
  8
0
  6
Continuous
 62
     7
370
    15
100
AcDbCircle
 10
657.4356455386
 20
-13.325039682
 30
0.0
 40
30.0
100
AcDbArc
 50
43.017540334
 51
90.0
  0
LINE
  5
193
330
1F
100
AcDbEntity
  8
0
  6
Continuous
 62
     7
370
    15
100
AcDbLine
 10
606.3371650368
 20
16.6749603168
 30
0.0
 11
657.4356439948
 21
16.6749603168
 31
0.0
  0
LINE
  5
194
330
1F
100
AcDbEntity
  8
0
  6
Continuous
 62
     7
370
    15
100
AcDbLine
 10
606.3371650368
 20
20.374960318
 30
0.0
 11
606.3371650368
 21
16.6749603168
 31
0.0
  0
LINE
  5
195
330
1F
100
AcDbEntity
  8
0
  6
Continuous
 62
     7
370
    15
100
AcDbLine
 10
586.3371654839
 20
20.374960318
 30
0.0
 11
606.3371650368
 21
20.374960318
 31
0.0
  0
LINE
  5
196
330
1F
100
AcDbEntity
  8
0
  6
Continuous
 62
     7
370
    15
100
AcDbLine
 10
586.3371654839
 20
20.374960318
 30
0.0
 11
586.3371654839
 21
16.6749603168
 31
0.0
  0
LINE
  5
197
330
1F
100
AcDbEntity
  8
0
  6
Continuous
 62
     7
370
    15
100
AcDbLine
 10
586.3371654839
 20
16.6749603168
 30
0.0
 11
535.2386865259
 21
16.6749603168
 31
0.0
  0
ARC
  5
198
330
1F
100
AcDbEntity
  8
0
  6
Continuous
 62
     7
370
    15
100
AcDbCircle
 10
535.2386849821
 20
-13.325039682
 30
0.0
 40
30.0
100
AcDbArc
 50
90.0
 51
136.982459666
  0
ARC
  5
199
330
1F
100
AcDbEntity
  8
0
  6
Continuous
 62
     7
370
    15
100
AcDbCircle
 10
502.3371652603
 20
17.374960318
 30
0.0
 40
15.00000000000001
100
AcDbArc
 50
270.0
 51
316.982459666
  0
LINE
  5
19A
330
1F
100
AcDbEntity
  8
0
  6
Continuous
 62
     7
370
    15
100
AcDbLine
 10
502.337168479
 20
2.3749610928
 30
0.0
 11
467.3371720553
 21
2.3749610928
 31
0.0
  0
ARC
  5
19B
330
1F
100
AcDbEntity
  8
0
  6
Continuous
 62
     7
370
    15
100
AcDbCircle
 10
467.3371652603
 20
17.374960318
 30
0.0
 40
15.00000000000006
100
AcDbArc
 50
180.0
 51
270.0
  0
LINE
  5
19C
330
1F
100
AcDbEntity
  8
0
  6
Continuous
 62
     7
370
    15
100
AcDbLine
 10
452.3371714592
 20
17.3749602919
 30
0.0
 11
452.3371714592
 21
59.3749611226
 31
0.0
  0
LINE
  5
19D
330
1F
100
AcDbEntity
  8
0
  6
Continuous
 62
     7
370
    15
100
AcDbLine
 10
452.3371714592
 20
59.3749611226
 30
0.0
 11
456.037159586
 21
59.3749611226
 31
0.0
  0
LINE
  5
19E
330
1F
100
AcDbEntity
  8
0
  6
Continuous
 62
     7
370
    15
100
AcDbLine
 10
456.037159586
 20
59.3749611226
 30
0.0
 11
456.037159586
 21
79.3749606756
 31
0.0
  0
LINE
  5
19F
330
1F
100
AcDbEntity
  8
0
  6
Continuous
 62
     7
370
    15
100
AcDbLine
 10
456.037159586
 20
79.3749606756
 30
0.0
 11
452.3371714592
 21
79.3749606756
 31
0.0
  0
LINE
  5
1A0
330
1F
100
AcDbEntity
  8
0
  6
Continuous
 62
     7
370
    15
100
AcDbLine
 10
452.3371714592
 20
79.3749606756
 30
0.0
 11
452.3371714592
 21
159.3749588874
 31
0.0
  0
LINE
  5
1A1
330
1F
100
AcDbEntity
  8
0
  6
Continuous
 62
     7
370
    15
100
AcDbLine
 10
452.3371714592
 20
159.3749588874
 30
0.0
 11
456.037159586
 21
159.3749588874
 31
0.0
  0
LINE
  5
1A2
330
1F
100
AcDbEntity
  8
0
  6
Continuous
 62
     7
370
    15
100
AcDbLine
 10
456.037159586
 20
159.3749588874
 30
0.0
 11
456.037159586
 21
179.3749547151
 31
0.0
  0
LINE
  5
1A3
330
1F
100
AcDbEntity
  8
0
  6
Continuous
 62
     7
370
    15
100
AcDbLine
 10
456.037159586
 20
179.3749547151
 30
0.0
 11
452.3371714592
 21
179.3749547151
 31
0.0
  0
LINE
  5
1A4
330
1F
100
AcDbEntity
  8
0
  6
Continuous
 62
     7
370
    15
100
AcDbLine
 10
452.3371714592
 20
179.3749547151
 30
0.0
 11
452.3371714592
 21
182.3749607948
 31
0.0
  0
ARC
  5
1A5
330
1F
100
AcDbEntity
  8
0
  6
Continuous
 62
     7
370
    15
100
AcDbCircle
 10
457.3371652603
 20
182.374960318
 30
0.0
 40
5.000000000000028
100
AcDbArc
 50
90.0
 51
180.0
  0
LINE
  5
1A6
330
1F
100
AcDbEntity
  8
0
  6
Continuous
 62
     7
370
    15
100
AcDbLine
 10
457.3371666909
 20
187.3749560264
 30
0.0
 11
459.8371643067
 21
187.3749560264
 31
0.0
  0
ARC
  5
1A7
330
1F
100
AcDbEntity
  8
0
  6
Continuous
 62
     7
370
    15
100
AcDbCircle
 10
462.3371652603
 20
191.7050873369
 30
0.0
 40
5.000000000000041
100
AcDbArc
 50
240.0
 51
300.0
  0
LINE
  5
1A8
330
1F
100
AcDbEntity
  8
0
  6
Continuous
 62
     7
370
    15
100
AcDbLine
 10
464.8371595383
 20
187.3749560264
 30
0.0
 11
467.3371720553
 21
187.3749560264
 31
0.0
  0
ARC
  5
1A9
330
1F
100
AcDbEntity
  8
0
  6
Continuous
 62
     7
370
    15
100
AcDbCircle
 10
467.3371652603
 20
182.374960318
 30
0.0
 40
5.000000000000028
100
AcDbArc
 50
0.0
 51
90.0
  0
LINE
  5
1AA
330
1F
100
AcDbEntity
  8
0
  6
Continuous
 62
     7
370
    15
100
AcDbLine
 10
472.3371672869
 20
182.3749607948
 30
0.0
 11
472.3371672869
 21
159.3749588874
 31
0.0
  0
ARC
  5
1AB
330
1F
100
AcDbEntity
  8
0
  6
Continuous
 62
     7
370
    15
100
AcDbCircle
 10
476.3371652603
 20
156.374960318
 30
0.0
 40
5.0
100
AcDbArc
 50
143.1301023542
 51
216.8698976458
  0
LINE
  5
1AC
330
1F
100
AcDbEntity
  8
0
  6
Continuous
 62
     7
370
    15
100
AcDbLine
 10
472.3371672869
 20
153.3749616293
 30
0.0
 11
472.3371672869
 21
133.3123883751
 31
0.0
  0
ARC
  5
1AD
330
1F
100
AcDbEntity
  8
0
  6
Continuous
 62
     7
370
    15
100
AcDbCircle
 10
542.3371652603
 20
133.3123850166
 30
0.0
 40
70.0
100
AcDbArc
 50
180.0
 51
197.7763267932
  0
ARC
  5
1AE
330
1F
100
AcDbEntity
  8
0
  6
Continuous
 62
     7
370
    15
100
AcDbCircle
 10
480.4699543547
 20
110.5096935781
 30
0.0
 40
5.000000000000021
100
AcDbArc
 50
163.3627148709
 51
237.1025101626
  0
ARC
  5
1AF
330
1F
100
AcDbEntity
  8
0
  6
Continuous
 62
     7
370
    15
100
AcDbCircle
 10
542.3371652603
 20
133.3123850166
 30
0.0
 40
70.00000000000003
100
AcDbArc
 50
202.6888982403
 51
208.1375265744
  0
ARC
  5
1B0
330
1F
100
AcDbEntity
  8
0
  6
Continuous
 62
     7
370
    15
100
AcDbCircle
 10
493.8371652603
 20
107.374960318
 30
0.0
 40
14.99999999999998
100
AcDbArc
 50
208.1375265744
 51
331.8624734256
  0
ARC
  5
1B1
330
1F
100
AcDbEntity
  8
0
  6
Continuous
 62
     7
370
    15
100
AcDbCircle
 10
445.3371652603
 20
133.3123850166
 30
0.0
 40
70.00000000000003
100
AcDbArc
 50
331.8624734256
 51
337.3111017597
  0
ARC
  5
1B2
330
1F
100
AcDbEntity
  8
0
  6
Continuous
 62
     7
370
    15
100
AcDbCircle
 10
507.204376166
 20
110.5096935781
 30
0.0
 40
4.999999999999983
100
AcDbArc
 50
302.8974898374
 51
16.6372851291
  0
ARC
  5
1B3
330
1F
100
AcDbEntity
  8
0
  6
Continuous
 62
     7
370
    15
100
AcDbCircle
 10
445.3371652603
 20
133.3123850166
 30
0.0
 40
70.00000000000006
100
AcDbArc
 50
342.2236732068
 51
0.0
  0
LINE
  5
1B4
330
1F
100
AcDbEntity
  8
0
  6
Continuous
 62
     7
370
    15
100
AcDbLine
 10
515.3371650219
 20
133.3123883751
 30
0.0
 11
515.3371650219
 21
153.3749616293
 31
0.0
  0
ARC
  5
1B5
330
1F
100
AcDbEntity
  8
0
  6
Continuous
 62
     7
370
    15
100
AcDbCircle
 10
511.3371652603
 20
156.374960318
 30
0.0
 40
5.0
100
AcDbArc
 50
323.1301023542
 51
36.8698976458
  0
LINE
  5
1B6
330
1F
100
AcDbEntity
  8
0
  6
Continuous
 62
     7
370
    15
100
AcDbLine
 10
515.3371650219
 20
159.3749588874
 30
0.0
 11
515.3371650219
 21
182.3749607948
 31
0.0
  0
ARC
  5
1B7
330
1F
100
AcDbEntity
  8
0
  6
Continuous
 62
     7
370
    15
100
AcDbCircle
 10
520.3371652603
 20
182.374960318
 30
0.0
 40
5.000000000000028
100
AcDbArc
 50
90.0
 51
180.0
  0
LINE
  5
1B8
330
1F
100
AcDbEntity
  8
0
  6
Continuous
 62
     7
370
    15
100
AcDbLine
 10
520.3371677041
 20
187.3749560264
 30
0.0
 11
522.83716532
 21
187.3749560264
 31
0.0
  0
ARC
  5
1B9
330
1F
100
AcDbEntity
  8
0
  6
Continuous
 62
     7
370
    15
100
AcDbCircle
 10
525.3371652604
 20
191.7050873369
 30
0.0
 40
5.000000000000073
100
AcDbArc
 50
240.0
 51
300.0
  0
LINE
  5
1BA
330
1F
100
AcDbEntity
  8
0
  6
Continuous
 62
     7
370
    15
100
AcDbLine
 10
527.8371680022
 20
187.3749560264
 30
0.0
 11
528.3371615649
 21
187.3749560264
 31
0.0
  0
ARC
  5
1BB
330
1F
100
AcDbEntity
  8
0
  6
Continuous
 62
     7
370
    15
100
AcDbCircle
 10
528.3371652603
 20
181.374960318
 30
0.0
 40
6.000000000000114
100
AcDbArc
 50
0.0
 51
90.0
  0
LINE
  5
1BC
330
1F
100
AcDbEntity
  8
0
  6
Continuous
 62
     7
370
    15
100
AcDbLine
 10
534.3371662736
 20
181.3749587682
 30
0.0
 11
534.3371662736
 21
178.3749675897
 31
0.0
  0
ARC
  5
1BD
330
1F
100
AcDbEntity
  8
0
  6
Continuous
 62
     7
370
    15
100
AcDbCircle
 10
542.3371652603
 20
178.374960318
 30
0.0
 40
8.000000000000057
100
AcDbArc
 50
180.0
 51
270.0
  0
LINE
  5
1BE
330
1F
100
AcDbEntity
  8
0
  6
Continuous
 62
     7
370
    15
100
AcDbLine
 10
650.3371666611
 20
170.3749662784
 30
0.0
 11
542.3371638596
 21
170.3749662784
 31
0.0
  0
ARC
  5
1BF
330
1F
100
AcDbEntity
  8
0
  6
Continuous
 62
     7
370
    15
100
AcDbCircle
 10
650.3371652603
 20
178.374960318
 30
0.0
 40
8.000000000000057
100
AcDbArc
 50
270.0
 51
0.0
  0
LINE
  5
1C0
330
1F
100
AcDbEntity
  8
0
  6
Continuous
 62
     7
370
    15
100
AcDbLine
 10
658.3371642471
 20
181.3749587682
 30
0.0
 11
658.3371642471
 21
178.3749675897
 31
0.0
  0
ARC
  5
1C1
330
1F
100
AcDbEntity
  8
0
  6
Continuous
 62
     7
370
    15
100
AcDbCircle
 10
664.3371652603
 20
181.374960318
 30
0.0
 40
6.000000000000114
100
AcDbArc
 50
90.0
 51
180.0
  0
LINE
  5
1C2
330
1F
100
AcDbEntity
  8
0
  6
Continuous
 62
     7
370
    15
100
AcDbLine
 10
664.8371625185
 20
187.3749560264
 30
0.0
 11
664.3371689558
 21
187.3749560264
 31
0.0
  0
ARC
  5
1C3
330
1F
100
AcDbEntity
  8
0
  6
Continuous
 62
     7
370
    15
100
AcDbCircle
 10
667.3371652603
 20
191.7050873369
 30
0.0
 40
5.000000000000041
100
AcDbArc
 50
240.0
 51
300.0
  0
LINE
  5
1C4
330
1F
100
AcDbEntity
  8
0
  6
Continuous
 62
     7
370
    15
100
AcDbLine
 10
672.3371628166
 20
187.3749560264
 30
0.0
 11
669.8371652007
 21
187.3749560264
 31
0.0
  0
ARC
  5
1C5
330
1F
100
AcDbEntity
  8
0
  6
Continuous
 62
     7
370
    15
100
AcDbCircle
 10
672.3371652603
 20
182.374960318
 30
0.0
 40
5.000000000000028
100
AcDbArc
 50
0.0
 51
90.0
  0
LINE
  5
1C6
330
1F
100
AcDbEntity
  8
0
  6
Continuous
 62
     7
370
    15
100
AcDbLine
 10
677.3371654988
 20
159.3749588874
 30
0.0
 11
677.3371654988
 21
182.3749607948
 31
0.0
  0
ARC
  5
1C7
330
1F
100
AcDbEntity
  8
0
  6
Continuous
 62
     7
370
    15
100
AcDbCircle
 10
681.3371652603
 20
156.374960318
 30
0.0
 40
5.0
100
AcDbArc
 50
143.1301023542
 51
216.8698976458
  0
LINE
  5
1C8
330
1F
100
AcDbEntity
  8
0
  6
Continuous
 62
     7
370
    15
100
AcDbLine
 10
677.3371654988
 20
133.3123883751
 30
0.0
 11
677.3371654988
 21
153.3749616293
 31
0.0
  0
ARC
  5
1C9
330
1F
100
AcDbEntity
  8
0
  6
Continuous
 62
     7
370
    15
100
AcDbCircle
 10
747.3371652603
 20
133.3123850166
 30
0.0
 40
70.00000000000011
100
AcDbArc
 50
180.0
 51
197.7763267932
  0
ARC
  5
1CA
330
1F
100
AcDbEntity
  8
0
  6
Continuous
 62
     7
370
    15
100
AcDbCircle
 10
685.4699543547
 20
110.5096935781
 30
0.0
 40
4.999999999999983
100
AcDbArc
 50
163.3627148709
 51
237.1025101626
  0
ARC
  5
1CB
330
1F
100
AcDbEntity
  8
0
  6
Continuous
 62
     7
370
    15
100
AcDbCircle
 10
747.3371652603
 20
133.3123850166
 30
0.0
 40
70.00000000000003
100
AcDbArc
 50
202.6888982403
 51
208.1375265744
  0
ARC
  5
1CC
330
1F
100
AcDbEntity
  8
0
  6
Continuous
 62
     7
370
    15
100
AcDbCircle
 10
698.8371652603
 20
107.374960318
 30
0.0
 40
15.00000000000003
100
AcDbArc
 50
208.1375265744
 51
331.8624734256
  0
ARC
  5
1CD
330
1F
100
AcDbEntity
  8
0
  6
Continuous
 62
     7
370
    15
100
AcDbCircle
 10
650.3371652603
 20
133.3123850166
 30
0.0
 40
70.00000000000009
100
AcDbArc
 50
331.8624734256
 51
337.3111017597
  0
ARC
  5
1CE
330
1F
100
AcDbEntity
  8
0
  6
Continuous
 62
     7
370
    15
100
AcDbCircle
 10
712.204376166
 20
110.5096935781
 30
0.0
 40
5.000000000000083
100
AcDbArc
 50
302.8974898374
 51
16.6372851291
  0
ARC
  5
1CF
330
1F
100
AcDbEntity
  8
0
  6
Continuous
 62
     7
370
    15
100
AcDbCircle
 10
650.3371652603
 20
133.3123850166
 30
0.0
 40
70.00000000000011
100
AcDbArc
 50
342.2236732068
 51
0.0
  0
LINE
  5
1D0
330
1F
100
AcDbEntity
  8
0
  6
Continuous
 62
     7
370
    15
100
AcDbLine
 10
720.3371632338
 20
153.3749616293
 30
0.0
 11
720.3371632338
 21
133.3123883751
 31
0.0
  0
ARC
  5
1D1
330
1F
100
AcDbEntity
  8
0
  6
Continuous
 62
     7
370
    15
100
AcDbCircle
 10
716.3371652603
 20
156.374960318
 30
0.0
 40
5.0
100
AcDbArc
 50
323.1301023542
 51
36.8698976458
  0
LINE
  5
1D2
330
1F
100
AcDbEntity
  8
0
  6
Continuous
 62
     7
370
    15
100
AcDbLine
 10
720.3371632338
 20
182.3749607948
 30
0.0
 11
720.3371632338
 21
159.3749588874
 31
0.0
  0
ARC
  5
1D3
330
1F
100
AcDbEntity
  8
0
  6
Continuous
 62
     7
370
    15
100
AcDbCircle
 10
725.3371652603
 20
182.374960318
 30
0.0
 40
5.000000000000028
100
AcDbArc
 50
90.0
 51
180.0
  0
LINE
  5
1D4
330
1F
100
AcDbEntity
  8
0
  6
Continuous
 62
     7
370
    15
100
AcDbLine
 10
616.8371658266
 20
35.3749599827
 30
0.0
 11
616.8371658266
 21
55.374960467
 31
0.0
  0
LINE
  5
1D5
330
1F
100
AcDbEntity
  8
0
  6
Continuous
 62
     7
370
    15
100
AcDbLine
 10
616.8371658266
 20
55.374960467
 30
0.0
 11
613.1371646613
 21
55.374960467
 31
0.0
  0
LINE
  5
1D6
330
1F
100
AcDbEntity
  8
0
  6
Continuous
 62
     7
370
    15
100
AcDbLine
 10
613.1371646613
 20
55.374960467
 30
0.0
 11
613.1371646613
 21
35.3749599827
 31
0.0
  0
LINE
  5
1D7
330
1F
100
AcDbEntity
  8
0
  6
Continuous
 62
     7
370
    15
100
AcDbLine
 10
613.1371646613
 20
35.3749599827
 30
0.0
 11
616.8371658266
 21
35.3749599827
 31
0.0
  0
ARC
  5
1D8
330
1F
100
AcDbEntity
  8
0
  6
Continuous
 62
     7
370
    15
100
AcDbCircle
 10
725.3371652603
 20
157.374960318
 30
0.0
 40
1.0
100
AcDbArc
 50
0.0
 51
180.0
  0
LINE
  5
1D9
330
1F
100
AcDbEntity
  8
0
  6
Continuous
 62
     7
370
    15
100
AcDbLine
 10
724.33717134
 20
157.3749548343
 30
0.0
 11
724.33717134
 21
155.3749656824
 31
0.0
  0
ARC
  5
1DA
330
1F
100
AcDbEntity
  8
0
  6
Continuous
 62
     7
370
    15
100
AcDbCircle
 10
725.3371652603
 20
155.374960318
 30
0.0
 40
1.0
100
AcDbArc
 50
180.0
 51
0.0
  0
LINE
  5
1DB
330
1F
100
AcDbEntity
  8
0
  6
Continuous
 62
     7
370
    15
100
AcDbLine
 10
726.337160492
 20
155.3749656824
 30
0.0
 11
726.337160492
 21
157.3749548343
 31
0.0
  0
ARC
  5
1DC
330
1F
100
AcDbEntity
  8
0
  6
Continuous
 62
     7
370
    15
100
AcDbCircle
 10
676.6191082966
 20
108.3132566464
 30
0.0
 40
0.9999999999999795
100
AcDbArc
 50
20.2326125167
 51
200.2326125167
  0
LINE
  5
1DD
330
1F
100
AcDbEntity
  8
0
  6
Continuous
 62
     7
370
    15
100
AcDbLine
 10
675.6808120251
 20
107.9674279836
 30
0.0
 11
676.3724792242
 21
106.0908353475
 31
0.0
  0
ARC
  5
1DE
330
1F
100
AcDbEntity
  8
0
  6
Continuous
 62
     7
370
    15
100
AcDbCircle
 10
677.3107729552
 20
106.4366639895
 30
0.0
 40
1.000000000000086
100
AcDbArc
 50
200.2326125167
 51
20.2326125167
  0
LINE
  5
1DF
330
1F
100
AcDbEntity
  8
0
  6
Continuous
 62
     7
370
    15
100
AcDbLine
 10
678.2490718603
 20
106.7824950961
 30
0.0
 11
677.5574046612
 21
108.6590877322
 31
0.0
  0
ARC
  5
1E0
330
1F
100
AcDbEntity
  8
0
  6
Continuous
 62
     7
370
    15
100
AcDbCircle
 10
666.3371652603
 20
182.374960318
 30
0.0
 40
0.9999999999999716
100
AcDbArc
 50
90.0
 51
270.0
  0
LINE
  5
1E1
330
1F
100
AcDbEntity
  8
0
  6
Continuous
 62
     7
370
    15
100
AcDbLine
 10
666.3371655584
 20
181.3749587682
 30
0.0
 11
668.3371621609
 21
181.3749587682
 31
0.0
  0
ARC
  5
1E2
330
1F
100
AcDbEntity
  8
0
  6
Continuous
 62
     7
370
    15
100
AcDbCircle
 10
668.3371652603
 20
182.374960318
 30
0.0
 40
0.9999999999999716
100
AcDbArc
 50
270.0
 51
90.0
  0
LINE
  5
1E3
330
1F
100
AcDbEntity
  8
0
  6
Continuous
 62
     7
370
    15
100
AcDbLine
 10
668.3371621609
 20
183.3749628213
 30
0.0
 11
666.3371655584
 21
183.3749628213
 31
0.0
  0
LINE
  5
1E4
330
1F
100
AcDbEntity
  8
0
  6
Continuous
 62
     7
370
    15
100
AcDbLine
 10
708.8371622801
 20
16.6749603168
 30
0.0
 11
708.8371622801
 21
20.374960318
 31
0.0
  0
LINE
  5
1E5
330
1F
100
AcDbEntity
  8
0
  6
Continuous
 62
     7
370
    15
100
AcDbLine
 10
708.8371622801
 20
20.374960318
 30
0.0
 11
688.8371664524
 21
20.374960318
 31
0.0
  0
LINE
  5
1E6
330
1F
100
AcDbEntity
  8
0
  6
Continuous
 62
     7
370
    15
100
AcDbLine
 10
688.8371664524
 20
20.374960318
 30
0.0
 11
688.8371664524
 21
16.6749603168
 31
0.0
  0
LINE
  5
1E7
330
1F
100
AcDbEntity
  8
0
  6
Continuous
 62
     7
370
    15
100
AcDbLine
 10
688.8371664524
 20
16.6749603168
 30
0.0
 11
708.8371622801
 21
16.6749603168
 31
0.0
  0
LINE
  5
1E8
330
1F
100
AcDbEntity
  8
0
  6
Continuous
 62
     7
370
    15
100
AcDbLine
 10
465.7905529372
 20
418.3478957178
 30
0.0
 11
433.7905514173
 21
418.3478957178
 31
0.0
  0
LINE
  5
1E9
330
1F
100
AcDbEntity
  8
0
  6
Continuous
 62
     7
370
    15
100
AcDbLine
 10
465.7905529372
 20
403.3478951218
 30
0.0
 11
465.7905529372
 21
418.3478957178
 31
0.0
  0
LINE
  5
1EA
330
1F
100
AcDbEntity
  8
0
  6
Continuous
 62
     7
370
    15
100
AcDbLine
 10
469.4905522399
 20
403.3478951218
 30
0.0
 11
465.7905529372
 21
403.3478951218
 31
0.0
  0
LINE
  5
1EB
330
1F
100
AcDbEntity
  8
0
  6
Continuous
 62
     7
370
    15
100
AcDbLine
 10
469.4905522399
 20
383.3478918435
 30
0.0
 11
469.4905522399
 21
403.3478951218
 31
0.0
  0
LINE
  5
1EC
330
1F
100
AcDbEntity
  8
0
  6
Continuous
 62
     7
370
    15
100
AcDbLine
 10
465.7905529372
 20
383.3478918435
 30
0.0
 11
469.4905522399
 21
383.3478918435
 31
0.0
  0
LINE
  5
1ED
330
1F
100
AcDbEntity
  8
0
  6
Continuous
 62
     7
370
    15
100
AcDbLine
 10
465.7905529372
 20
303.3478899064
 30
0.0
 11
465.7905529372
 21
383.3478918435
 31
0.0
  0
LINE
  5
1EE
330
1F
100
AcDbEntity
  8
0
  6
Continuous
 62
     7
370
    15
100
AcDbLine
 10
469.4905522399
 20
303.3478899064
 30
0.0
 11
465.7905529372
 21
303.3478899064
 31
0.0
  0
LINE
  5
1EF
330
1F
100
AcDbEntity
  8
0
  6
Continuous
 62
     7
370
    15
100
AcDbLine
 10
469.4905522399
 20
283.3478894221
 30
0.0
 11
469.4905522399
 21
303.3478899064
 31
0.0
  0
LINE
  5
1F0
330
1F
100
AcDbEntity
  8
0
  6
Continuous
 62
     7
370
    15
100
AcDbLine
 10
465.7905529372
 20
283.3478894221
 30
0.0
 11
469.4905522399
 21
283.3478894221
 31
0.0
  0
LINE
  5
1F1
330
1F
100
AcDbEntity
  8
0
  6
Continuous
 62
     7
370
    15
100
AcDbLine
 10
465.7905529372
 20
268.3478897574
 30
0.0
 11
465.7905529372
 21
283.3478894221
 31
0.0
  0
LINE
  5
1F2
330
1F
100
AcDbEntity
  8
0
  6
Continuous
 62
     7
370
    15
100
AcDbLine
 10
433.7905514173
 20
268.3478897574
 30
0.0
 11
465.7905529372
 21
268.3478897574
 31
0.0
  0
LINE
  5
1F3
330
1F
100
AcDbEntity
  8
0
  6
Continuous
 62
     7
370
    15
100
AcDbLine
 10
433.7905514173
 20
283.3478894221
 30
0.0
 11
433.7905514173
 21
268.3478897574
 31
0.0
  0
LINE
  5
1F4
330
1F
100
AcDbEntity
  8
0
  6
Continuous
 62
     7
370
    15
100
AcDbLine
 10
430.0905521147
 20
283.3478894221
 30
0.0
 11
433.7905514173
 21
283.3478894221
 31
0.0
  0
LINE
  5
1F5
330
1F
100
AcDbEntity
  8
0
  6
Continuous
 62
     7
370
    15
100
AcDbLine
 10
430.0905521147
 20
303.3478899064
 30
0.0
 11
430.0905521147
 21
283.3478894221
 31
0.0
  0
LINE
  5
1F6
330
1F
100
AcDbEntity
  8
0
  6
Continuous
 62
     7
370
    15
100
AcDbLine
 10
433.7905514173
 20
303.3478899064
 30
0.0
 11
430.0905521147
 21
303.3478899064
 31
0.0
  0
LINE
  5
1F7
330
1F
100
AcDbEntity
  8
0
  6
Continuous
 62
     7
370
    15
100
AcDbLine
 10
433.7905514173
 20
383.3478918435
 30
0.0
 11
433.7905514173
 21
303.3478899064
 31
0.0
  0
LINE
  5
1F8
330
1F
100
AcDbEntity
  8
0
  6
Continuous
 62
     7
370
    15
100
AcDbLine
 10
430.0905521147
 20
383.3478918435
 30
0.0
 11
433.7905514173
 21
383.3478918435
 31
0.0
  0
LINE
  5
1F9
330
1F
100
AcDbEntity
  8
0
  6
Continuous
 62
     7
370
    15
100
AcDbLine
 10
430.0905521147
 20
403.3478951218
 30
0.0
 11
430.0905521147
 21
383.3478918435
 31
0.0
  0
LINE
  5
1FA
330
1F
100
AcDbEntity
  8
0
  6
Continuous
 62
     7
370
    15
100
AcDbLine
 10
433.7905514173
 20
403.3478951218
 30
0.0
 11
430.0905521147
 21
403.3478951218
 31
0.0
  0
LINE
  5
1FB
330
1F
100
AcDbEntity
  8
0
  6
Continuous
 62
     7
370
    15
100
AcDbLine
 10
433.7905514173
 20
418.3478957178
 30
0.0
 11
433.7905514173
 21
403.3478951218
 31
0.0
  0
LINE
  5
1FC
330
1F
100
AcDbEntity
  8
0
  6
Continuous
 62
     7
370
    15
100
AcDbLine
 10
217.6203656373
 20
284.4489184172
 30
0.0
 11
185.6203641174
 21
284.4489184172
 31
0.0
  0
LINE
  5
1FD
330
1F
100
AcDbEntity
  8
0
  6
Continuous
 62
     7
370
    15
100
AcDbLine
 10
217.6203656373
 20
269.4489178212
 30
0.0
 11
217.6203656373
 21
284.4489184172
 31
0.0
  0
LINE
  5
1FE
330
1F
100
AcDbEntity
  8
0
  6
Continuous
 62
     7
370
    15
100
AcDbLine
 10
221.3203649399
 20
269.4489178212
 30
0.0
 11
217.6203656373
 21
269.4489178212
 31
0.0
  0
LINE
  5
1FF
330
1F
100
AcDbEntity
  8
0
  6
Continuous
 62
     7
370
    15
100
AcDbLine
 10
221.3203649399
 20
249.4489145429
 30
0.0
 11
221.3203649399
 21
269.4489178212
 31
0.0
  0
LINE
  5
200
330
1F
100
AcDbEntity
  8
0
  6
Continuous
 62
     7
370
    15
100
AcDbLine
 10
217.6203656373
 20
249.4489145429
 30
0.0
 11
221.3203649399
 21
249.4489145429
 31
0.0
  0
LINE
  5
201
330
1F
100
AcDbEntity
  8
0
  6
Continuous
 62
     7
370
    15
100
AcDbLine
 10
217.6203656373
 20
169.4489126058
 30
0.0
 11
217.6203656373
 21
249.4489145429
 31
0.0
  0
LINE
  5
202
330
1F
100
AcDbEntity
  8
0
  6
Continuous
 62
     7
370
    15
100
AcDbLine
 10
221.3203649399
 20
169.4489126058
 30
0.0
 11
217.6203656373
 21
169.4489126058
 31
0.0
  0
LINE
  5
203
330
1F
100
AcDbEntity
  8
0
  6
Continuous
 62
     7
370
    15
100
AcDbLine
 10
221.3203649399
 20
149.4489121215
 30
0.0
 11
221.3203649399
 21
169.4489126058
 31
0.0
  0
LINE
  5
204
330
1F
100
AcDbEntity
  8
0
  6
Continuous
 62
     7
370
    15
100
AcDbLine
 10
217.6203656373
 20
149.4489121215
 30
0.0
 11
221.3203649399
 21
149.4489121215
 31
0.0
  0
LINE
  5
205
330
1F
100
AcDbEntity
  8
0
  6
Continuous
 62
     7
370
    15
100
AcDbLine
 10
217.6203656373
 20
134.4489124568
 30
0.0
 11
217.6203656373
 21
149.4489121215
 31
0.0
  0
LINE
  5
206
330
1F
100
AcDbEntity
  8
0
  6
Continuous
 62
     7
370
    15
100
AcDbLine
 10
185.6203641174
 20
134.4489124568
 30
0.0
 11
217.6203656373
 21
134.4489124568
 31
0.0
  0
LINE
  5
207
330
1F
100
AcDbEntity
  8
0
  6
Continuous
 62
     7
370
    15
100
AcDbLine
 10
185.6203641174
 20
149.4489121215
 30
0.0
 11
185.6203641174
 21
134.4489124568
 31
0.0
  0
LINE
  5
208
330
1F
100
AcDbEntity
  8
0
  6
Continuous
 62
     7
370
    15
100
AcDbLine
 10
181.9203648148
 20
149.4489121215
 30
0.0
 11
185.6203641174
 21
149.4489121215
 31
0.0
  0
LINE
  5
209
330
1F
100
AcDbEntity
  8
0
  6
Continuous
 62
     7
370
    15
100
AcDbLine
 10
181.9203648148
 20
169.4489126058
 30
0.0
 11
181.9203648148
 21
149.4489121215
 31
0.0
  0
LINE
  5
20A
330
1F
100
AcDbEntity
  8
0
  6
Continuous
 62
     7
370
    15
100
AcDbLine
 10
185.6203641174
 20
169.4489126058
 30
0.0
 11
181.9203648148
 21
169.4489126058
 31
0.0
  0
LINE
  5
20B
330
1F
100
AcDbEntity
  8
0
  6
Continuous
 62
     7
370
    15
100
AcDbLine
 10
185.6203641174
 20
249.4489145429
 30
0.0
 11
185.6203641174
 21
169.4489126058
 31
0.0
  0
LINE
  5
20C
330
1F
100
AcDbEntity
  8
0
  6
Continuous
 62
     7
370
    15
100
AcDbLine
 10
181.9203648148
 20
249.4489145429
 30
0.0
 11
185.6203641174
 21
249.4489145429
 31
0.0
  0
LINE
  5
20D
330
1F
100
AcDbEntity
  8
0
  6
Continuous
 62
     7
370
    15
100
AcDbLine
 10
181.9203648148
 20
269.4489178212
 30
0.0
 11
181.9203648148
 21
249.4489145429
 31
0.0
  0
LINE
  5
20E
330
1F
100
AcDbEntity
  8
0
  6
Continuous
 62
     7
370
    15
100
AcDbLine
 10
185.6203641174
 20
269.4489178212
 30
0.0
 11
181.9203648148
 21
269.4489178212
 31
0.0
  0
LINE
  5
20F
330
1F
100
AcDbEntity
  8
0
  6
Continuous
 62
     7
370
    15
100
AcDbLine
 10
185.6203641174
 20
284.4489184172
 30
0.0
 11
185.6203641174
 21
269.4489178212
 31
0.0
  0
LINE
  5
210
330
1F
100
AcDbEntity
  8
0
  6
Continuous
 62
     7
370
    15
100
AcDbLine
 10
423.7416638118
 20
391.2669931992
 30
0.0
 11
391.7416622919
 21
391.2669931992
 31
0.0
  0
LINE
  5
211
330
1F
100
AcDbEntity
  8
0
  6
Continuous
 62
     7
370
    15
100
AcDbLine
 10
423.7416638118
 20
376.2669926031
 30
0.0
 11
423.7416638118
 21
391.2669931992
 31
0.0
  0
LINE
  5
212
330
1F
100
AcDbEntity
  8
0
  6
Continuous
 62
     7
370
    15
100
AcDbLine
 10
427.4416631145
 20
376.2669926031
 30
0.0
 11
423.7416638118
 21
376.2669926031
 31
0.0
  0
LINE
  5
213
330
1F
100
AcDbEntity
  8
0
  6
Continuous
 62
     7
370
    15
100
AcDbLine
 10
427.4416631145
 20
356.2669893249
 30
0.0
 11
427.4416631145
 21
376.2669926031
 31
0.0
  0
LINE
  5
214
330
1F
100
AcDbEntity
  8
0
  6
Continuous
 62
     7
370
    15
100
AcDbLine
 10
423.7416638118
 20
356.2669893249
 30
0.0
 11
427.4416631145
 21
356.2669893249
 31
0.0
  0
LINE
  5
215
330
1F
100
AcDbEntity
  8
0
  6
Continuous
 62
     7
370
    15
100
AcDbLine
 10
423.7416638118
 20
276.2669873877
 30
0.0
 11
423.7416638118
 21
356.2669893249
 31
0.0
  0
LINE
  5
216
330
1F
100
AcDbEntity
  8
0
  6
Continuous
 62
     7
370
    15
100
AcDbLine
 10
427.4416631145
 20
276.2669873877
 30
0.0
 11
423.7416638118
 21
276.2669873877
 31
0.0
  0
LINE
  5
217
330
1F
100
AcDbEntity
  8
0
  6
Continuous
 62
     7
370
    15
100
AcDbLine
 10
427.4416631145
 20
256.2669869034
 30
0.0
 11
427.4416631145
 21
276.2669873877
 31
0.0
  0
LINE
  5
218
330
1F
100
AcDbEntity
  8
0
  6
Continuous
 62
     7
370
    15
100
AcDbLine
 10
423.7416638118
 20
256.2669869034
 30
0.0
 11
427.4416631145
 21
256.2669869034
 31
0.0
  0
LINE
  5
219
330
1F
100
AcDbEntity
  8
0
  6
Continuous
 62
     7
370
    15
100
AcDbLine
 10
423.7416638118
 20
241.2669872387
 30
0.0
 11
423.7416638118
 21
256.2669869034
 31
0.0
  0
LINE
  5
21A
330
1F
100
AcDbEntity
  8
0
  6
Continuous
 62
     7
370
    15
100
AcDbLine
 10
391.7416622919
 20
241.2669872387
 30
0.0
 11
423.7416638118
 21
241.2669872387
 31
0.0
  0
LINE
  5
21B
330
1F
100
AcDbEntity
  8
0
  6
Continuous
 62
     7
370
    15
100
AcDbLine
 10
391.7416622919
 20
256.2669869034
 30
0.0
 11
391.7416622919
 21
241.2669872387
 31
0.0
  0
LINE
  5
21C
330
1F
100
AcDbEntity
  8
0
  6
Continuous
 62
     7
370
    15
100
AcDbLine
 10
388.0416629893
 20
256.2669869034
 30
0.0
 11
391.7416622919
 21
256.2669869034
 31
0.0
  0
LINE
  5
21D
330
1F
100
AcDbEntity
  8
0
  6
Continuous
 62
     7
370
    15
100
AcDbLine
 10
388.0416629893
 20
276.2669873877
 30
0.0
 11
388.0416629893
 21
256.2669869034
 31
0.0
  0
LINE
  5
21E
330
1F
100
AcDbEntity
  8
0
  6
Continuous
 62
     7
370
    15
100
AcDbLine
 10
391.7416622919
 20
276.2669873877
 30
0.0
 11
388.0416629893
 21
276.2669873877
 31
0.0
  0
LINE
  5
21F
330
1F
100
AcDbEntity
  8
0
  6
Continuous
 62
     7
370
    15
100
AcDbLine
 10
391.7416622919
 20
356.2669893249
 30
0.0
 11
391.7416622919
 21
276.2669873877
 31
0.0
  0
LINE
  5
220
330
1F
100
AcDbEntity
  8
0
  6
Continuous
 62
     7
370
    15
100
AcDbLine
 10
388.0416629893
 20
356.2669893249
 30
0.0
 11
391.7416622919
 21
356.2669893249
 31
0.0
  0
LINE
  5
221
330
1F
100
AcDbEntity
  8
0
  6
Continuous
 62
     7
370
    15
100
AcDbLine
 10
388.0416629893
 20
376.2669926031
 30
0.0
 11
388.0416629893
 21
356.2669893249
 31
0.0
  0
LINE
  5
222
330
1F
100
AcDbEntity
  8
0
  6
Continuous
 62
     7
370
    15
100
AcDbLine
 10
391.7416622919
 20
376.2669926031
 30
0.0
 11
388.0416629893
 21
376.2669926031
 31
0.0
  0
LINE
  5
223
330
1F
100
AcDbEntity
  8
0
  6
Continuous
 62
     7
370
    15
100
AcDbLine
 10
391.7416622919
 20
391.2669931992
 30
0.0
 11
391.7416622919
 21
376.2669926031
 31
0.0
  0
LINE
  5
224
330
1F
100
AcDbEntity
  8
0
  6
Continuous
 62
     7
370
    15
100
AcDbLine
 10
216.9718405977
 20
533.5631506267
 30
0.0
 11
184.9718390778
 21
533.5631506267
 31
0.0
  0
LINE
  5
225
330
1F
100
AcDbEntity
  8
0
  6
Continuous
 62
     7
370
    15
100
AcDbLine
 10
216.9718405977
 20
518.5631500307
 30
0.0
 11
216.9718405977
 21
533.5631506267
 31
0.0
  0
LINE
  5
226
330
1F
100
AcDbEntity
  8
0
  6
Continuous
 62
     7
370
    15
100
AcDbLine
 10
220.6718399004
 20
518.5631500307
 30
0.0
 11
216.9718405977
 21
518.5631500307
 31
0.0
  0
LINE
  5
227
330
1F
100
AcDbEntity
  8
0
  6
Continuous
 62
     7
370
    15
100
AcDbLine
 10
220.6718399004
 20
498.5631467524
 30
0.0
 11
220.6718399004
 21
518.5631500307
 31
0.0
  0
LINE
  5
228
330
1F
100
AcDbEntity
  8
0
  6
Continuous
 62
     7
370
    15
100
AcDbLine
 10
216.9718405977
 20
498.5631467524
 30
0.0
 11
220.6718399004
 21
498.5631467524
 31
0.0
  0
LINE
  5
229
330
1F
100
AcDbEntity
  8
0
  6
Continuous
 62
     7
370
    15
100
AcDbLine
 10
216.9718405977
 20
418.5631448152
 30
0.0
 11
216.9718405977
 21
498.5631467524
 31
0.0
  0
LINE
  5
22A
330
1F
100
AcDbEntity
  8
0
  6
Continuous
 62
     7
370
    15
100
AcDbLine
 10
220.6718399004
 20
418.5631448152
 30
0.0
 11
216.9718405977
 21
418.5631448152
 31
0.0
  0
LINE
  5
22B
330
1F
100
AcDbEntity
  8
0
  6
Continuous
 62
     7
370
    15
100
AcDbLine
 10
220.6718399004
 20
398.563144331
 30
0.0
 11
220.6718399004
 21
418.5631448152
 31
0.0
  0
LINE
  5
22C
330
1F
100
AcDbEntity
  8
0
  6
Continuous
 62
     7
370
    15
100
AcDbLine
 10
216.9718405977
 20
398.563144331
 30
0.0
 11
220.6718399004
 21
398.563144331
 31
0.0
  0
LINE
  5
22D
330
1F
100
AcDbEntity
  8
0
  6
Continuous
 62
     7
370
    15
100
AcDbLine
 10
216.9718405977
 20
383.5631446662
 30
0.0
 11
216.9718405977
 21
398.563144331
 31
0.0
  0
LINE
  5
22E
330
1F
100
AcDbEntity
  8
0
  6
Continuous
 62
     7
370
    15
100
AcDbLine
 10
184.9718390778
 20
383.5631446662
 30
0.0
 11
216.9718405977
 21
383.5631446662
 31
0.0
  0
LINE
  5
22F
330
1F
100
AcDbEntity
  8
0
  6
Continuous
 62
     7
370
    15
100
AcDbLine
 10
184.9718390778
 20
398.563144331
 30
0.0
 11
184.9718390778
 21
383.5631446662
 31
0.0
  0
LINE
  5
230
330
1F
100
AcDbEntity
  8
0
  6
Continuous
 62
     7
370
    15
100
AcDbLine
 10
181.2718397752
 20
398.563144331
 30
0.0
 11
184.9718390778
 21
398.563144331
 31
0.0
  0
LINE
  5
231
330
1F
100
AcDbEntity
  8
0
  6
Continuous
 62
     7
370
    15
100
AcDbLine
 10
181.2718397752
 20
418.5631448152
 30
0.0
 11
181.2718397752
 21
398.563144331
 31
0.0
  0
LINE
  5
232
330
1F
100
AcDbEntity
  8
0
  6
Continuous
 62
     7
370
    15
100
AcDbLine
 10
184.9718390778
 20
418.5631448152
 30
0.0
 11
181.2718397752
 21
418.5631448152
 31
0.0
  0
LINE
  5
233
330
1F
100
AcDbEntity
  8
0
  6
Continuous
 62
     7
370
    15
100
AcDbLine
 10
184.9718390778
 20
498.5631467524
 30
0.0
 11
184.9718390778
 21
418.5631448152
 31
0.0
  0
LINE
  5
234
330
1F
100
AcDbEntity
  8
0
  6
Continuous
 62
     7
370
    15
100
AcDbLine
 10
181.2718397752
 20
498.5631467524
 30
0.0
 11
184.9718390778
 21
498.5631467524
 31
0.0
  0
LINE
  5
235
330
1F
100
AcDbEntity
  8
0
  6
Continuous
 62
     7
370
    15
100
AcDbLine
 10
181.2718397752
 20
518.5631500307
 30
0.0
 11
181.2718397752
 21
498.5631467524
 31
0.0
  0
LINE
  5
236
330
1F
100
AcDbEntity
  8
0
  6
Continuous
 62
     7
370
    15
100
AcDbLine
 10
184.9718390778
 20
518.5631500307
 30
0.0
 11
181.2718397752
 21
518.5631500307
 31
0.0
  0
LINE
  5
237
330
1F
100
AcDbEntity
  8
0
  6
Continuous
 62
     7
370
    15
100
AcDbLine
 10
184.9718390778
 20
533.5631506267
 30
0.0
 11
184.9718390778
 21
518.5631500307
 31
0.0
  0
ARC
  5
238
330
1F
100
AcDbEntity
  8
0
  6
Continuous
 62
     7
370
    15
100
AcDbCircle
 10
379.9520297683
 20
232.5752381829
 30
0.0
 40
1.500000000000057
100
AcDbArc
 50
180.0
 51
360.0
  0
LINE
  5
239
330
1F
100
AcDbEntity
  8
0
  6
Continuous
 62
     7
370
    15
100
AcDbLine
 10
381.4520268596
 20
232.5752417591
 30
0.0
 11
381.4520268596
 21
235.5752403882
 31
0.0
  0
ARC
  5
23A
330
1F
100
AcDbEntity
  8
0
  6
Continuous
 62
     7
370
    15
100
AcDbCircle
 10
379.9520297683
 20
235.5752381829
 30
0.0
 40
1.5
100
AcDbArc
 50
360.0
 51
180.0
  0
LINE
  5
23B
330
1F
100
AcDbEntity
  8
0
  6
Continuous
 62
     7
370
    15
100
AcDbLine
 10
378.452035681
 20
235.5752403882
 30
0.0
 11
378.452035681
 21
232.5752417591
 31
0.0
  0
LINE
  5
23C
330
1F
100
AcDbEntity
  8
0
  6
Continuous
 62
     7
370
    15
100
AcDbLine
 10
381.4520268596
 20
427.5752346066
 30
0.0
 11
381.4520268596
 21
424.5752359775
 31
0.0
  0
ARC
  5
23D
330
1F
100
AcDbEntity
  8
0
  6
Continuous
 62
     7
370
    15
100
AcDbCircle
 10
379.9520297683
 20
427.5752381829
 30
0.0
 40
1.5
100
AcDbArc
 50
360.0
 51
180.0
  0
LINE
  5
23E
330
1F
100
AcDbEntity
  8
0
  6
Continuous
 62
     7
370
    15
100
AcDbLine
 10
378.452035681
 20
424.5752359775
 30
0.0
 11
378.452035681
 21
427.5752346066
 31
0.0
  0
ARC
  5
23F
330
1F
100
AcDbEntity
  8
0
  6
Continuous
 62
     7
370
    15
100
AcDbCircle
 10
379.9520297683
 20
424.5752381829
 30
0.0
 40
1.500000000000057
100
AcDbArc
 50
180.0
 51
360.0
  0
LINE
  5
240
330
1F
100
AcDbEntity
  8
0
  6
Continuous
 62
     7
370
    15
100
AcDbLine
 10
477.8520307398
 20
232.5752417591
 30
0.0
 11
477.8520307398
 21
235.5752403882
 31
0.0
  0
ARC
  5
241
330
1F
100
AcDbEntity
  8
0
  6
Continuous
 62
     7
370
    15
100
AcDbCircle
 10
479.3520297683
 20
232.5752381829
 30
0.0
 40
1.5
100
AcDbArc
 50
180.0
 51
0.0
  0
LINE
  5
242
330
1F
100
AcDbEntity
  8
0
  6
Continuous
 62
     7
370
    15
100
AcDbLine
 10
480.8520293689
 20
235.5752403882
 30
0.0
 11
480.8520293689
 21
232.5752417591
 31
0.0
  0
ARC
  5
243
330
1F
100
AcDbEntity
  8
0
  6
Continuous
 62
     7
370
    15
100
AcDbCircle
 10
479.3520297683
 20
235.5752381829
 30
0.0
 40
1.5
100
AcDbArc
 50
0.0
 51
180.0
  0
ARC
  5
244
330
1F
100
AcDbEntity
  8
0
  6
Continuous
 62
     7
370
    15
100
AcDbCircle
 10
479.3520297683
 20
427.5752381829
 30
0.0
 40
1.5
100
AcDbArc
 50
0.0
 51
180.0
  0
LINE
  5
245
330
1F
100
AcDbEntity
  8
0
  6
Continuous
 62
     7
370
    15
100
AcDbLine
 10
477.8520307398
 20
427.5752346066
 30
0.0
 11
477.8520307398
 21
424.5752359775
 31
0.0
  0
ARC
  5
246
330
1F
100
AcDbEntity
  8
0
  6
Continuous
 62
     7
370
    15
100
AcDbCircle
 10
479.3520297683
 20
424.5752381829
 30
0.0
 40
1.5
100
AcDbArc
 50
180.0
 51
0.0
  0
LINE
  5
247
330
1F
100
AcDbEntity
  8
0
  6
Continuous
 62
     7
370
    15
100
AcDbLine
 10
480.8520293689
 20
424.5752359775
 30
0.0
 11
480.8520293689
 21
427.5752346066
 31
0.0
  0
LINE
  5
248
330
1F
100
AcDbEntity
  8
0
  6
Continuous
 62
     7
370
    15
100
AcDbLine
 10
382.1520238078
 20
194.0752307919
 30
0.0
 11
419.6520327485
 21
194.0752307919
 31
0.0
  0
LINE
  5
249
330
1F
100
AcDbEntity
  8
0
  6
Continuous
 62
     7
370
    15
100
AcDbLine
 10
377.1520285762
 20
199.0752409247
 30
0.0
 11
382.1520238078
 21
194.0752307919
 31
0.0
  0
LINE
  5
24A
330
1F
100
AcDbEntity
  8
0
  6
Continuous
 62
     7
370
    15
100
AcDbLine
 10
377.1520285762
 20
204.0752361563
 30
0.0
 11
377.1520285762
 21
199.0752409247
 31
0.0
  0
LINE
  5
24B
330
1F
100
AcDbEntity
  8
0
  6
Continuous
 62
     7
370
    15
100
AcDbLine
 10
373.4520255483
 20
204.0752361563
 30
0.0
 11
377.1520285762
 21
204.0752361563
 31
0.0
  0
LINE
  5
24C
330
1F
100
AcDbEntity
  8
0
  6
Continuous
 62
     7
370
    15
100
AcDbLine
 10
373.4520255483
 20
199.0752409247
 30
0.0
 11
373.4520255483
 21
204.0752361563
 31
0.0
  0
LINE
  5
24D
330
1F
100
AcDbEntity
  8
0
  6
Continuous
 62
     7
370
    15
100
AcDbLine
 10
368.4520303166
 20
194.0752307919
 30
0.0
 11
373.4520255483
 21
199.0752409247
 31
0.0
  0
LINE
  5
24E
330
1F
100
AcDbEntity
  8
0
  6
Continuous
 62
     7
370
    15
100
AcDbLine
 10
337.1520369208
 20
194.0752307919
 30
0.0
 11
368.4520303166
 21
194.0752307919
 31
0.0
  0
LINE
  5
24F
330
1F
100
AcDbEntity
  8
0
  6
Continuous
 62
     7
370
    15
100
AcDbLine
 10
337.1520369208
 20
190.3752426651
 30
0.0
 11
337.1520369208
 21
194.0752307919
 31
0.0
  0
LINE
  5
250
330
1F
100
AcDbEntity
  8
0
  6
Continuous
 62
     7
370
    15
100
AcDbLine
 10
317.152026192
 20
190.3752426651
 30
0.0
 11
337.1520369208
 21
190.3752426651
 31
0.0
  0
LINE
  5
251
330
1F
100
AcDbEntity
  8
0
  6
Continuous
 62
     7
370
    15
100
AcDbLine
 10
317.152026192
 20
194.0752307919
 30
0.0
 11
317.152026192
 21
190.3752426651
 31
0.0
  0
LINE
  5
252
330
1F
100
AcDbEntity
  8
0
  6
Continuous
 62
     7
370
    15
100
AcDbLine
 10
294.3520276702
 20
194.0752307919
 30
0.0
 11
317.152026192
 21
194.0752307919
 31
0.0
  0
LINE
  5
253
330
1F
100
AcDbEntity
  8
0
  6
Continuous
 62
     7
370
    15
100
AcDbLine
 10
289.3520324386
 20
199.0752409247
 30
0.0
 11
294.3520276702
 21
194.0752307919
 31
0.0
  0
LINE
  5
254
330
1F
100
AcDbEntity
  8
0
  6
Continuous
 62
     7
370
    15
100
AcDbLine
 10
289.3520324386
 20
224.0752394346
 30
0.0
 11
289.3520324386
 21
199.0752409247
 31
0.0
  0
LINE
  5
255
330
1F
100
AcDbEntity
  8
0
  6
Continuous
 62
     7
370
    15
100
AcDbLine
 10
285.6520294106
 20
224.0752394346
 30
0.0
 11
289.3520324386
 21
224.0752394346
 31
0.0
  0
LINE
  5
256
330
1F
100
AcDbEntity
  8
0
  6
Continuous
 62
     7
370
    15
100
AcDbLine
 10
285.6520294106
 20
244.0752352622
 30
0.0
 11
285.6520294106
 21
224.0752394346
 31
0.0
  0
LINE
  5
257
330
1F
100
AcDbEntity
  8
0
  6
Continuous
 62
     7
370
    15
100
AcDbLine
 10
289.3520324386
 20
244.0752352622
 30
0.0
 11
285.6520294106
 21
244.0752352622
 31
0.0
  0
LINE
  5
258
330
1F
100
AcDbEntity
  8
0
  6
Continuous
 62
     7
370
    15
100
AcDbLine
 10
289.3520324386
 20
320.0752384064
 30
0.0
 11
289.3520324386
 21
244.0752352622
 31
0.0
  0
LINE
  5
259
330
1F
100
AcDbEntity
  8
0
  6
Continuous
 62
     7
370
    15
100
AcDbLine
 10
285.6520294106
 20
320.0752384064
 30
0.0
 11
289.3520324386
 21
320.0752384064
 31
0.0
  0
LINE
  5
25A
330
1F
100
AcDbEntity
  8
0
  6
Continuous
 62
     7
370
    15
100
AcDbLine
 10
285.6520294106
 20
320.0752384064
 30
0.0
 11
285.6520294106
 21
340.0752379593
 31
0.0
  0
LINE
  5
25B
330
1F
100
AcDbEntity
  8
0
  6
Continuous
 62
     7
370
    15
100
AcDbLine
 10
285.6520294106
 20
340.0752379593
 30
0.0
 11
289.3520324386
 21
340.0752379593
 31
0.0
  0
LINE
  5
25C
330
1F
100
AcDbEntity
  8
0
  6
Continuous
 62
     7
370
    15
100
AcDbLine
 10
289.3520324386
 20
340.0752379593
 30
0.0
 11
289.3520324386
 21
416.0752411035
 31
0.0
  0
LINE
  5
25D
330
1F
100
AcDbEntity
  8
0
  6
Continuous
 62
     7
370
    15
100
AcDbLine
 10
289.3520324386
 20
416.0752411035
 30
0.0
 11
285.6520294106
 21
416.0752411035
 31
0.0
  0
LINE
  5
25E
330
1F
100
AcDbEntity
  8
0
  6
Continuous
 62
     7
370
    15
100
AcDbLine
 10
285.6520294106
 20
416.0752411035
 30
0.0
 11
285.6520294106
 21
436.0752369312
 31
0.0
  0
LINE
  5
25F
330
1F
100
AcDbEntity
  8
0
  6
Continuous
 62
     7
370
    15
100
AcDbLine
 10
285.6520294106
 20
436.0752369312
 30
0.0
 11
289.3520324386
 21
436.0752369312
 31
0.0
  0
LINE
  5
260
330
1F
100
AcDbEntity
  8
0
  6
Continuous
 62
     7
370
    15
100
AcDbLine
 10
289.3520324386
 20
436.0752369312
 30
0.0
 11
289.3520324386
 21
461.075235441
 31
0.0
  0
LINE
  5
261
330
1F
100
AcDbEntity
  8
0
  6
Continuous
 62
     7
370
    15
100
AcDbLine
 10
289.3520324386
 20
461.075235441
 30
0.0
 11
294.3520276702
 21
466.0752455738
 31
0.0
  0
LINE
  5
262
330
1F
100
AcDbEntity
  8
0
  6
Continuous
 62
     7
370
    15
100
AcDbLine
 10
294.3520276702
 20
466.0752455738
 30
0.0
 11
317.152026192
 21
466.0752455738
 31
0.0
  0
LINE
  5
263
330
1F
100
AcDbEntity
  8
0
  6
Continuous
 62
     7
370
    15
100
AcDbLine
 10
317.152026192
 20
466.0752455738
 30
0.0
 11
317.152026192
 21
469.7752337006
 31
0.0
  0
LINE
  5
264
330
1F
100
AcDbEntity
  8
0
  6
Continuous
 62
     7
370
    15
100
AcDbLine
 10
317.152026192
 20
469.7752337006
 30
0.0
 11
337.1520369208
 21
469.7752337006
 31
0.0
  0
LINE
  5
265
330
1F
100
AcDbEntity
  8
0
  6
Continuous
 62
     7
370
    15
100
AcDbLine
 10
337.1520369208
 20
469.7752337006
 30
0.0
 11
337.1520369208
 21
466.0752455738
 31
0.0
  0
LINE
  5
266
330
1F
100
AcDbEntity
  8
0
  6
Continuous
 62
     7
370
    15
100
AcDbLine
 10
337.1520369208
 20
466.0752455738
 30
0.0
 11
368.4520303166
 21
466.0752455738
 31
0.0
  0
LINE
  5
267
330
1F
100
AcDbEntity
  8
0
  6
Continuous
 62
     7
370
    15
100
AcDbLine
 10
368.4520303166
 20
466.0752455738
 30
0.0
 11
373.4520255483
 21
461.075235441
 31
0.0
  0
LINE
  5
268
330
1F
100
AcDbEntity
  8
0
  6
Continuous
 62
     7
370
    15
100
AcDbLine
 10
373.4520255483
 20
461.075235441
 30
0.0
 11
373.4520255483
 21
456.0752402094
 31
0.0
  0
LINE
  5
269
330
1F
100
AcDbEntity
  8
0
  6
Continuous
 62
     7
370
    15
100
AcDbLine
 10
373.4520255483
 20
456.0752402094
 30
0.0
 11
377.1520285762
 21
456.0752402094
 31
0.0
  0
LINE
  5
26A
330
1F
100
AcDbEntity
  8
0
  6
Continuous
 62
     7
370
    15
100
AcDbLine
 10
377.1520285762
 20
456.0752402094
 30
0.0
 11
377.1520285762
 21
461.075235441
 31
0.0
  0
LINE
  5
26B
330
1F
100
AcDbEntity
  8
0
  6
Continuous
 62
     7
370
    15
100
AcDbLine
 10
377.1520285762
 20
461.075235441
 30
0.0
 11
382.1520238078
 21
466.0752455738
 31
0.0
  0
LINE
  5
26C
330
1F
100
AcDbEntity
  8
0
  6
Continuous
 62
     7
370
    15
100
AcDbLine
 10
382.1520238078
 20
466.0752455738
 30
0.0
 11
419.6520327485
 21
466.0752455738
 31
0.0
  0
LINE
  5
26D
330
1F
100
AcDbEntity
  8
0
  6
Continuous
 62
     7
370
    15
100
AcDbLine
 10
419.6520327485
 20
466.0752455738
 30
0.0
 11
419.6520327485
 21
469.7752337006
 31
0.0
  0
LINE
  5
26E
330
1F
100
AcDbEntity
  8
0
  6
Continuous
 62
     7
370
    15
100
AcDbLine
 10
439.6520285762
 20
469.7752337006
 30
0.0
 11
419.6520327485
 21
469.7752337006
 31
0.0
  0
LINE
  5
26F
330
1F
100
AcDbEntity
  8
0
  6
Continuous
 62
     7
370
    15
100
AcDbLine
 10
439.6520285762
 20
466.0752455738
 30
0.0
 11
439.6520285762
 21
469.7752337006
 31
0.0
  0
LINE
  5
270
330
1F
100
AcDbEntity
  8
0
  6
Continuous
 62
     7
370
    15
100
AcDbLine
 10
477.1520300663
 20
466.0752455738
 30
0.0
 11
439.6520285762
 21
466.0752455738
 31
0.0
  0
LINE
  5
271
330
1F
100
AcDbEntity
  8
0
  6
Continuous
 62
     7
370
    15
100
AcDbLine
 10
482.1520290232
 20
461.075235441
 30
0.0
 11
477.1520300663
 21
466.0752455738
 31
0.0
  0
LINE
  5
272
330
1F
100
AcDbEntity
  8
0
  6
Continuous
 62
     7
370
    15
100
AcDbLine
 10
482.1520290232
 20
456.0752402094
 30
0.0
 11
482.1520290232
 21
461.075235441
 31
0.0
  0
LINE
  5
273
330
1F
100
AcDbEntity
  8
0
  6
Continuous
 62
     7
370
    15
100
AcDbLine
 10
485.8520283258
 20
456.0752402094
 30
0.0
 11
482.1520290232
 21
456.0752402094
 31
0.0
  0
LINE
  5
274
330
1F
100
AcDbEntity
  8
0
  6
Continuous
 62
     7
370
    15
100
AcDbLine
 10
485.8520283258
 20
461.075235441
 30
0.0
 11
485.8520283258
 21
456.0752402094
 31
0.0
  0
LINE
  5
275
330
1F
100
AcDbEntity
  8
0
  6
Continuous
 62
     7
370
    15
100
AcDbLine
 10
490.852031008
 20
466.0752455738
 30
0.0
 11
485.8520283258
 21
461.075235441
 31
0.0
  0
LINE
  5
276
330
1F
100
AcDbEntity
  8
0
  6
Continuous
 62
     7
370
    15
100
AcDbLine
 10
522.1520299918
 20
466.0752455738
 30
0.0
 11
490.852031008
 21
466.0752455738
 31
0.0
  0
LINE
  5
277
330
1F
100
AcDbEntity
  8
0
  6
Continuous
 62
     7
370
    15
100
AcDbLine
 10
522.1520299918
 20
469.7752337006
 30
0.0
 11
522.1520299918
 21
466.0752455738
 31
0.0
  0
LINE
  5
278
330
1F
100
AcDbEntity
  8
0
  6
Continuous
 62
     7
370
    15
100
AcDbLine
 10
542.1520295447
 20
469.7752337006
 30
0.0
 11
522.1520299918
 21
469.7752337006
 31
0.0
  0
LINE
  5
279
330
1F
100
AcDbEntity
  8
0
  6
Continuous
 62
     7
370
    15
100
AcDbLine
 10
542.1520295447
 20
466.0752455738
 30
0.0
 11
542.1520295447
 21
469.7752337006
 31
0.0
  0
LINE
  5
27A
330
1F
100
AcDbEntity
  8
0
  6
Continuous
 62
     7
370
    15
100
AcDbLine
 10
564.9520299292
 20
466.0752455738
 30
0.0
 11
542.1520295447
 21
466.0752455738
 31
0.0
  0
LINE
  5
27B
330
1F
100
AcDbEntity
  8
0
  6
Continuous
 62
     7
370
    15
100
AcDbLine
 10
569.9520288861
 20
461.075235441
 30
0.0
 11
564.9520299292
 21
466.0752455738
 31
0.0
  0
LINE
  5
27C
330
1F
100
AcDbEntity
  8
0
  6
Continuous
 62
     7
370
    15
100
AcDbLine
 10
569.9520288861
 20
436.0752369312
 30
0.0
 11
569.9520288861
 21
461.075235441
 31
0.0
  0
LINE
  5
27D
330
1F
100
AcDbEntity
  8
0
  6
Continuous
 62
     7
370
    15
100
AcDbLine
 10
573.6520281887
 20
436.0752369312
 30
0.0
 11
569.9520288861
 21
436.0752369312
 31
0.0
  0
LINE
  5
27E
330
1F
100
AcDbEntity
  8
0
  6
Continuous
 62
     7
370
    15
100
AcDbLine
 10
573.6520281887
 20
416.0752411035
 30
0.0
 11
573.6520281887
 21
436.0752369312
 31
0.0
  0
LINE
  5
27F
330
1F
100
AcDbEntity
  8
0
  6
Continuous
 62
     7
370
    15
100
AcDbLine
 10
569.9520288861
 20
416.0752411035
 30
0.0
 11
573.6520281887
 21
416.0752411035
 31
0.0
  0
LINE
  5
280
330
1F
100
AcDbEntity
  8
0
  6
Continuous
 62
     7
370
    15
100
AcDbLine
 10
569.9520288861
 20
340.0752379593
 30
0.0
 11
569.9520288861
 21
416.0752411035
 31
0.0
  0
LINE
  5
281
330
1F
100
AcDbEntity
  8
0
  6
Continuous
 62
     7
370
    15
100
AcDbLine
 10
573.6520281887
 20
340.0752379593
 30
0.0
 11
569.9520288861
 21
340.0752379593
 31
0.0
  0
LINE
  5
282
330
1F
100
AcDbEntity
  8
0
  6
Continuous
 62
     7
370
    15
100
AcDbLine
 10
573.6520281887
 20
320.0752384064
 30
0.0
 11
573.6520281887
 21
340.0752379593
 31
0.0
  0
LINE
  5
283
330
1F
100
AcDbEntity
  8
0
  6
Continuous
 62
     7
370
    15
100
AcDbLine
 10
573.6520281887
 20
320.0752384064
 30
0.0
 11
569.9520288861
 21
320.0752384064
 31
0.0
  0
LINE
  5
284
330
1F
100
AcDbEntity
  8
0
  6
Continuous
 62
     7
370
    15
100
AcDbLine
 10
569.9520288861
 20
320.0752384064
 30
0.0
 11
569.9520288861
 21
244.0752352622
 31
0.0
  0
LINE
  5
285
330
1F
100
AcDbEntity
  8
0
  6
Continuous
 62
     7
370
    15
100
AcDbLine
 10
569.9520288861
 20
244.0752352622
 30
0.0
 11
573.6520281887
 21
244.0752352622
 31
0.0
  0
LINE
  5
286
330
1F
100
AcDbEntity
  8
0
  6
Continuous
 62
     7
370
    15
100
AcDbLine
 10
573.6520281887
 20
244.0752352622
 30
0.0
 11
573.6520281887
 21
224.0752394346
 31
0.0
  0
LINE
  5
287
330
1F
100
AcDbEntity
  8
0
  6
Continuous
 62
     7
370
    15
100
AcDbLine
 10
573.6520281887
 20
224.0752394346
 30
0.0
 11
569.9520288861
 21
224.0752394346
 31
0.0
  0
LINE
  5
288
330
1F
100
AcDbEntity
  8
0
  6
Continuous
 62
     7
370
    15
100
AcDbLine
 10
569.9520288861
 20
224.0752394346
 30
0.0
 11
569.9520288861
 21
199.0752409247
 31
0.0
  0
LINE
  5
289
330
1F
100
AcDbEntity
  8
0
  6
Continuous
 62
     7
370
    15
100
AcDbLine
 10
569.9520288861
 20
199.0752409247
 30
0.0
 11
564.9520299292
 21
194.0752307919
 31
0.0
  0
LINE
  5
28A
330
1F
100
AcDbEntity
  8
0
  6
Continuous
 62
     7
370
    15
100
AcDbLine
 10
564.9520299292
 20
194.0752307919
 30
0.0
 11
542.1520295447
 21
194.0752307919
 31
0.0
  0
LINE
  5
28B
330
1F
100
AcDbEntity
  8
0
  6
Continuous
 62
     7
370
    15
100
AcDbLine
 10
542.1520295447
 20
194.0752307919
 30
0.0
 11
542.1520295447
 21
190.3752426651
 31
0.0
  0
LINE
  5
28C
330
1F
100
AcDbEntity
  8
0
  6
Continuous
 62
     7
370
    15
100
AcDbLine
 10
542.1520295447
 20
190.3752426651
 30
0.0
 11
522.1520299918
 21
190.3752426651
 31
0.0
  0
LINE
  5
28D
330
1F
100
AcDbEntity
  8
0
  6
Continuous
 62
     7
370
    15
100
AcDbLine
 10
522.1520299918
 20
190.3752426651
 30
0.0
 11
522.1520299918
 21
194.0752307919
 31
0.0
  0
LINE
  5
28E
330
1F
100
AcDbEntity
  8
0
  6
Continuous
 62
     7
370
    15
100
AcDbLine
 10
522.1520299918
 20
194.0752307919
 30
0.0
 11
490.852031008
 21
194.0752307919
 31
0.0
  0
LINE
  5
28F
330
1F
100
AcDbEntity
  8
0
  6
Continuous
 62
     7
370
    15
100
AcDbLine
 10
490.852031008
 20
194.0752307919
 30
0.0
 11
485.8520283258
 21
199.0752409247
 31
0.0
  0
LINE
  5
290
330
1F
100
AcDbEntity
  8
0
  6
Continuous
 62
     7
370
    15
100
AcDbLine
 10
485.8520283258
 20
199.0752409247
 30
0.0
 11
485.8520283258
 21
204.0752361563
 31
0.0
  0
LINE
  5
291
330
1F
100
AcDbEntity
  8
0
  6
Continuous
 62
     7
370
    15
100
AcDbLine
 10
485.8520283258
 20
204.0752361563
 30
0.0
 11
482.1520290232
 21
204.0752361563
 31
0.0
  0
LINE
  5
292
330
1F
100
AcDbEntity
  8
0
  6
Continuous
 62
     7
370
    15
100
AcDbLine
 10
482.1520290232
 20
204.0752361563
 30
0.0
 11
482.1520290232
 21
199.0752409247
 31
0.0
  0
LINE
  5
293
330
1F
100
AcDbEntity
  8
0
  6
Continuous
 62
     7
370
    15
100
AcDbLine
 10
482.1520290232
 20
199.0752409247
 30
0.0
 11
477.1520300663
 21
194.0752307919
 31
0.0
  0
LINE
  5
294
330
1F
100
AcDbEntity
  8
0
  6
Continuous
 62
     7
370
    15
100
AcDbLine
 10
477.1520300663
 20
194.0752307919
 30
0.0
 11
439.6520285762
 21
194.0752307919
 31
0.0
  0
LINE
  5
295
330
1F
100
AcDbEntity
  8
0
  6
Continuous
 62
     7
370
    15
100
AcDbLine
 10
439.6520285762
 20
194.0752307919
 30
0.0
 11
439.6520285762
 21
190.3752426651
 31
0.0
  0
LINE
  5
296
330
1F
100
AcDbEntity
  8
0
  6
Continuous
 62
     7
370
    15
100
AcDbLine
 10
439.6520285762
 20
190.3752426651
 30
0.0
 11
419.6520327485
 21
190.3752426651
 31
0.0
  0
LINE
  5
297
330
1F
100
AcDbEntity
  8
0
  6
Continuous
 62
     7
370
    15
100
AcDbLine
 10
419.6520327485
 20
194.0752307919
 30
0.0
 11
419.6520327485
 21
190.3752426651
 31
0.0
  0
ARC
  5
298
330
1F
100
AcDbEntity
  8
0
  6
Continuous
 62
     7
370
    15
100
AcDbCircle
 10
536.1520297683
 20
330.0752381829
 30
0.0
 40
6.0
100
AcDbArc
 50
270.0
 51
90.0
  0
LINE
  5
299
330
1F
100
AcDbEntity
  8
0
  6
Continuous
 62
     7
370
    15
100
AcDbLine
 10
528.1520295783
 20
336.075238235
 30
0.0
 11
536.1520299583
 21
336.075238235
 31
0.0
  0
ARC
  5
29A
330
1F
100
AcDbEntity
  8
0
  6
Continuous
 62
     7
370
    15
100
AcDbCircle
 10
528.1520297683
 20
330.0752381829
 30
0.0
 40
6.0
100
AcDbArc
 50
90.0
 51
270.0
  0
LINE
  5
29B
330
1F
100
AcDbEntity
  8
0
  6
Continuous
 62
     7
370
    15
100
AcDbLine
 10
528.1520295783
 20
324.0752381307
 30
0.0
 11
536.1520299583
 21
324.0752381307
 31
0.0
  0
LINE
  5
29C
330
1F
100
AcDbEntity
  8
0
  6
Continuous
 62
     7
370
    15
100
AcDbLine
 10
439.6520285762
 20
430.3752373007
 30
0.0
 11
419.6520327485
 21
430.3752373007
 31
0.0
  0
LINE
  5
29D
330
1F
100
AcDbEntity
  8
0
  6
Continuous
 62
     7
370
    15
100
AcDbLine
 10
439.6520285762
 20
434.0752403286
 30
0.0
 11
439.6520285762
 21
430.3752373007
 31
0.0
  0
LINE
  5
29E
330
1F
100
AcDbEntity
  8
0
  6
Continuous
 62
     7
370
    15
100
AcDbLine
 10
419.6520327485
 20
434.0752403286
 30
0.0
 11
439.6520285762
 21
434.0752403286
 31
0.0
  0
LINE
  5
29F
330
1F
100
AcDbEntity
  8
0
  6
Continuous
 62
     7
370
    15
100
AcDbLine
 10
419.6520327485
 20
434.0752403286
 30
0.0
 11
419.6520327485
 21
430.3752373007
 31
0.0
  0
CIRCLE
  5
2A0
330
1F
100
AcDbEntity
  8
0
  6
Continuous
 62
     7
370
    15
100
AcDbCircle
 10
429.6520297683
 20
450.0752381829
 30
0.0
 40
2.5
  0
LINE
  5
2A1
330
1F
100
AcDbEntity
  8
0
  6
Continuous
 62
     7
370
    15
100
AcDbLine
 10
331.1520247615
 20
336.075238235
 30
0.0
 11
323.1520234502
 21
336.075238235
 31
0.0
  0
ARC
  5
2A2
330
1F
100
AcDbEntity
  8
0
  6
Continuous
 62
     7
370
    15
100
AcDbCircle
 10
323.1520297683
 20
330.0752381829
 30
0.0
 40
6.0
100
AcDbArc
 50
90.0
 51
270.0
  0
LINE
  5
2A3
330
1F
100
AcDbEntity
  8
0
  6
Continuous
 62
     7
370
    15
100
AcDbLine
 10
331.1520247615
 20
324.0752381307
 30
0.0
 11
323.1520234502
 21
324.0752381307
 31
0.0
  0
ARC
  5
2A4
330
1F
100
AcDbEntity
  8
0
  6
Continuous
 62
     7
370
    15
100
AcDbCircle
 10
331.1520297683
 20
330.0752381829
 30
0.0
 40
6.0
100
AcDbArc
 50
270.0
 51
90.0
  0
CIRCLE
  5
2A5
330
1F
100
AcDbEntity
  8
0
  6
Continuous
 62
     7
370
    15
100
AcDbCircle
 10
429.6520297683
 20
210.0752381829
 30
0.0
 40
2.5
  0
LINE
  5
2A6
330
1F
100
AcDbEntity
  8
0
  6
Continuous
 62
     7
370
    15
100
AcDbLine
 10
439.6520285762
 20
226.0752360371
 30
0.0
 11
439.6520285762
 21
229.775239065
 31
0.0
  0
LINE
  5
2A7
330
1F
100
AcDbEntity
  8
0
  6
Continuous
 62
     7
370
    15
100
AcDbLine
 10
439.6520285762
 20
229.775239065
 30
0.0
 11
419.6520327485
 21
229.775239065
 31
0.0
  0
LINE
  5
2A8
330
1F
100
AcDbEntity
  8
0
  6
Continuous
 62
     7
370
    15
100
AcDbLine
 10
419.6520327485
 20
226.0752360371
 30
0.0
 11
419.6520327485
 21
229.775239065
 31
0.0
  0
LINE
  5
2A9
330
1F
100
AcDbEntity
  8
0
  6
Continuous
 62
     7
370
    15
100
AcDbLine
 10
419.6520327485
 20
226.0752360371
 30
0.0
 11
439.6520285762
 21
226.0752360371
 31
0.0
  0
ARC
  5
2AA
330
1F
100
AcDbEntity
  8
0
  6
Continuous
 62
     7
370
    15
100
AcDbCircle
 10
466.1520297683
 20
245.7752381829
 30
0.0
 40
10.00000000000003
100
AcDbArc
 50
270.0
 51
0.0
  0
LINE
  5
2AB
330
1F
100
AcDbEntity
  8
0
  6
Continuous
 62
     7
370
    15
100
AcDbLine
 10
476.1520280397
 20
245.7752416876
 30
0.0
 11
476.1520280397
 21
275.0752384809
 31
0.0
  0
ARC
  5
2AC
330
1F
100
AcDbEntity
  8
0
  6
Continuous
 62
     7
370
    15
100
AcDbCircle
 10
481.1520297683
 20
275.0752381829
 30
0.0
 40
5.0
100
AcDbArc
 50
90.0
 51
180.0
  0
LINE
  5
2AD
330
1F
100
AcDbEntity
  8
0
  6
Continuous
 62
     7
370
    15
100
AcDbLine
 10
481.1520307219
 20
280.0752374378
 30
0.0
 11
485.8520283258
 21
280.0752374378
 31
0.0
  0
LINE
  5
2AE
330
1F
100
AcDbEntity
  8
0
  6
Continuous
 62
     7
370
    15
100
AcDbLine
 10
485.8520283258
 20
380.0752389279
 30
0.0
 11
485.8520283258
 21
280.0752374378
 31
0.0
  0
LINE
  5
2AF
330
1F
100
AcDbEntity
  8
0
  6
Continuous
 62
     7
370
    15
100
AcDbLine
 10
481.1520307219
 20
380.0752389279
 30
0.0
 11
485.8520283258
 21
380.0752389279
 31
0.0
  0
ARC
  5
2B0
330
1F
100
AcDbEntity
  8
0
  6
Continuous
 62
     7
370
    15
100
AcDbCircle
 10
481.1520297683
 20
385.0752381829
 30
0.0
 40
5.0
100
AcDbArc
 50
180.0
 51
270.0
  0
LINE
  5
2B1
330
1F
100
AcDbEntity
  8
0
  6
Continuous
 62
     7
370
    15
100
AcDbLine
 10
476.1520280397
 20
414.3752346781
 30
0.0
 11
476.1520280397
 21
385.0752378848
 31
0.0
  0
ARC
  5
2B2
330
1F
100
AcDbEntity
  8
0
  6
Continuous
 62
     7
370
    15
100
AcDbCircle
 10
466.1520297683
 20
414.3752381829
 30
0.0
 40
10.00000000000006
100
AcDbArc
 50
0.0
 51
90.0
  0
LINE
  5
2B3
330
1F
100
AcDbEntity
  8
0
  6
Continuous
 62
     7
370
    15
100
AcDbLine
 10
393.1520311988
 20
424.3752400425
 30
0.0
 11
466.1520301259
 21
424.3752400425
 31
0.0
  0
ARC
  5
2B4
330
1F
100
AcDbEntity
  8
0
  6
Continuous
 62
     7
370
    15
100
AcDbCircle
 10
393.1520297683
 20
414.3752381829
 30
0.0
 40
10.0
100
AcDbArc
 50
90.0
 51
180.0
  0
LINE
  5
2B5
330
1F
100
AcDbEntity
  8
0
  6
Continuous
 62
     7
370
    15
100
AcDbLine
 10
383.1520258344
 20
414.3752346781
 30
0.0
 11
383.1520258344
 21
385.0752378848
 31
0.0
  0
ARC
  5
2B6
330
1F
100
AcDbEntity
  8
0
  6
Continuous
 62
     7
370
    15
100
AcDbCircle
 10
378.1520297683
 20
385.0752381829
 30
0.0
 40
4.999999999999943
100
AcDbArc
 50
270.0
 51
360.0
  0
LINE
  5
2B7
330
1F
100
AcDbEntity
  8
0
  6
Continuous
 62
     7
370
    15
100
AcDbLine
 10
378.1520306027
 20
380.0752389279
 30
0.0
 11
373.4520255483
 21
380.0752389279
 31
0.0
  0
LINE
  5
2B8
330
1F
100
AcDbEntity
  8
0
  6
Continuous
 62
     7
370
    15
100
AcDbLine
 10
373.4520255483
 20
380.0752389279
 30
0.0
 11
373.4520255483
 21
280.0752374378
 31
0.0
  0
LINE
  5
2B9
330
1F
100
AcDbEntity
  8
0
  6
Continuous
 62
     7
370
    15
100
AcDbLine
 10
378.1520306027
 20
280.0752374378
 30
0.0
 11
373.4520255483
 21
280.0752374378
 31
0.0
  0
ARC
  5
2BA
330
1F
100
AcDbEntity
  8
0
  6
Continuous
 62
     7
370
    15
100
AcDbCircle
 10
378.1520297683
 20
275.0752381829
 30
0.0
 40
5.000000000000057
100
AcDbArc
 50
360.0
 51
90.0
  0
LINE
  5
2BB
330
1F
100
AcDbEntity
  8
0
  6
Continuous
 62
     7
370
    15
100
AcDbLine
 10
383.1520258344
 20
245.7752416876
 30
0.0
 11
383.1520258344
 21
275.0752384809
 31
0.0
  0
ARC
  5
2BC
330
1F
100
AcDbEntity
  8
0
  6
Continuous
 62
     7
370
    15
100
AcDbCircle
 10
393.1520297683
 20
245.7752381829
 30
0.0
 40
10.0
100
AcDbArc
 50
180.0
 51
270.0
  0
LINE
  5
2BD
330
1F
100
AcDbEntity
  8
0
  6
Continuous
 62
     7
370
    15
100
AcDbLine
 10
393.1520311988
 20
235.7752363232
 30
0.0
 11
466.1520301259
 21
235.7752363232
 31
0.0
  0
LINE
  5
2BE
330
1F
100
AcDbEntity
  8
0
  6
Continuous
 62
     7
370
    15
100
AcDbLine
 10
693.5950554971
 20
432.561068611
 30
0.0
 11
693.5950554971
 21
428.8610655831
 31
0.0
  0
LINE
  5
2BF
330
1F
100
AcDbEntity
  8
0
  6
Continuous
 62
     7
370
    15
100
AcDbLine
 10
693.5950554971
 20
428.8610655831
 30
0.0
 11
713.59505505
 21
428.8610655831
 31
0.0
  0
LINE
  5
2C0
330
1F
100
AcDbEntity
  8
0
  6
Continuous
 62
     7
370
    15
100
AcDbLine
 10
713.59505505
 20
428.8610655831
 30
0.0
 11
713.59505505
 21
432.561068611
 31
0.0
  0
LINE
  5
2C1
330
1F
100
AcDbEntity
  8
0
  6
Continuous
 62
     7
370
    15
100
AcDbLine
 10
713.59505505
 20
432.561068611
 30
0.0
 11
693.5950554971
 21
432.561068611
 31
0.0
  0
LINE
  5
2C2
330
1F
100
AcDbEntity
  8
0
  6
Continuous
 62
     7
370
    15
100
AcDbLine
 10
713.59505505
 20
228.2610673474
 30
0.0
 11
693.5950554971
 21
228.2610673474
 31
0.0
  0
LINE
  5
2C3
330
1F
100
AcDbEntity
  8
0
  6
Continuous
 62
     7
370
    15
100
AcDbLine
 10
693.5950554971
 20
228.2610673474
 30
0.0
 11
693.5950554971
 21
224.5610643195
 31
0.0
  0
LINE
  5
2C4
330
1F
100
AcDbEntity
  8
0
  6
Continuous
 62
     7
370
    15
100
AcDbLine
 10
693.5950554971
 20
224.5610643195
 30
0.0
 11
713.59505505
 21
224.5610643195
 31
0.0
  0
LINE
  5
2C5
330
1F
100
AcDbEntity
  8
0
  6
Continuous
 62
     7
370
    15
100
AcDbLine
 10
713.59505505
 20
224.5610643195
 30
0.0
 11
713.59505505
 21
228.2610673474
 31
0.0
  0
LINE
  5
2C6
330
1F
100
AcDbEntity
  8
0
  6
Continuous
 62
     7
370
    15
100
AcDbLine
 10
578.5950608615
 20
464.5610738562
 30
0.0
 11
578.5950608615
 21
192.5610590743
 31
0.0
  0
LINE
  5
2C7
330
1F
100
AcDbEntity
  8
0
  6
Continuous
 62
     7
370
    15
100
AcDbLine
 10
593.5950614575
 20
464.5610738562
 30
0.0
 11
578.5950608615
 21
464.5610738562
 31
0.0
  0
LINE
  5
2C8
330
1F
100
AcDbEntity
  8
0
  6
Continuous
 62
     7
370
    15
100
AcDbLine
 10
593.5950614575
 20
468.261061983
 30
0.0
 11
593.5950614575
 21
464.5610738562
 31
0.0
  0
LINE
  5
2C9
330
1F
100
AcDbEntity
  8
0
  6
Continuous
 62
     7
370
    15
100
AcDbLine
 10
613.5950572852
 20
468.261061983
 30
0.0
 11
593.5950614575
 21
468.261061983
 31
0.0
  0
LINE
  5
2CA
330
1F
100
AcDbEntity
  8
0
  6
Continuous
 62
     7
370
    15
100
AcDbLine
 10
613.5950572852
 20
464.5610738562
 30
0.0
 11
613.5950572852
 21
468.261061983
 31
0.0
  0
LINE
  5
2CB
330
1F
100
AcDbEntity
  8
0
  6
Continuous
 62
     7
370
    15
100
AcDbLine
 10
693.5950554971
 20
464.5610738562
 30
0.0
 11
613.5950572852
 21
464.5610738562
 31
0.0
  0
LINE
  5
2CC
330
1F
100
AcDbEntity
  8
0
  6
Continuous
 62
     7
370
    15
100
AcDbLine
 10
693.5950554971
 20
468.261061983
 30
0.0
 11
693.5950554971
 21
464.5610738562
 31
0.0
  0
LINE
  5
2CD
330
1F
100
AcDbEntity
  8
0
  6
Continuous
 62
     7
370
    15
100
AcDbLine
 10
713.59505505
 20
468.261061983
 30
0.0
 11
693.5950554971
 21
468.261061983
 31
0.0
  0
LINE
  5
2CE
330
1F
100
AcDbEntity
  8
0
  6
Continuous
 62
     7
370
    15
100
AcDbLine
 10
713.59505505
 20
464.5610738562
 30
0.0
 11
713.59505505
 21
468.261061983
 31
0.0
  0
LINE
  5
2CF
330
1F
100
AcDbEntity
  8
0
  6
Continuous
 62
     7
370
    15
100
AcDbLine
 10
732.2950549487
 20
464.5610738562
 30
0.0
 11
713.59505505
 21
464.5610738562
 31
0.0
  0
LINE
  5
2D0
330
1F
100
AcDbEntity
  8
0
  6
Continuous
 62
     7
370
    15
100
AcDbLine
 10
732.2950549487
 20
454.5610684918
 30
0.0
 11
732.2950549487
 21
464.5610738562
 31
0.0
  0
LINE
  5
2D1
330
1F
100
AcDbEntity
  8
0
  6
Continuous
 62
     7
370
    15
100
AcDbLine
 10
728.5950549476
 20
454.5610684918
 30
0.0
 11
732.2950549487
 21
454.5610684918
 31
0.0
  0
LINE
  5
2D2
330
1F
100
AcDbEntity
  8
0
  6
Continuous
 62
     7
370
    15
100
AcDbLine
 10
728.5950549476
 20
378.5610672103
 30
0.0
 11
728.5950549476
 21
454.5610684918
 31
0.0
  0
LINE
  5
2D3
330
1F
100
AcDbEntity
  8
0
  6
Continuous
 62
     7
370
    15
100
AcDbLine
 10
732.2950549487
 20
378.5610672103
 30
0.0
 11
728.5950549476
 21
378.5610672103
 31
0.0
  0
LINE
  5
2D4
330
1F
100
AcDbEntity
  8
0
  6
Continuous
 62
     7
370
    15
100
AcDbLine
 10
732.2950549487
 20
278.5610657202
 30
0.0
 11
732.2950549487
 21
378.5610672103
 31
0.0
  0
LINE
  5
2D5
330
1F
100
AcDbEntity
  8
0
  6
Continuous
 62
     7
370
    15
100
AcDbLine
 10
728.5950549476
 20
278.5610657202
 30
0.0
 11
732.2950549487
 21
278.5610657202
 31
0.0
  0
LINE
  5
2D6
330
1F
100
AcDbEntity
  8
0
  6
Continuous
 62
     7
370
    15
100
AcDbLine
 10
728.5950549476
 20
202.5610644387
 30
0.0
 11
728.5950549476
 21
278.5610657202
 31
0.0
  0
LINE
  5
2D7
330
1F
100
AcDbEntity
  8
0
  6
Continuous
 62
     7
370
    15
100
AcDbLine
 10
732.2950549487
 20
202.5610644387
 30
0.0
 11
728.5950549476
 21
202.5610644387
 31
0.0
  0
LINE
  5
2D8
330
1F
100
AcDbEntity
  8
0
  6
Continuous
 62
     7
370
    15
100
AcDbLine
 10
732.2950549487
 20
192.5610590743
 30
0.0
 11
732.2950549487
 21
202.5610644387
 31
0.0
  0
LINE
  5
2D9
330
1F
100
AcDbEntity
  8
0
  6
Continuous
 62
     7
370
    15
100
AcDbLine
 10
713.59505505
 20
192.5610590743
 30
0.0
 11
732.2950549487
 21
192.5610590743
 31
0.0
  0
LINE
  5
2DA
330
1F
100
AcDbEntity
  8
0
  6
Continuous
 62
     7
370
    15
100
AcDbLine
 10
713.59505505
 20
188.8610709475
 30
0.0
 11
713.59505505
 21
192.5610590743
 31
0.0
  0
LINE
  5
2DB
330
1F
100
AcDbEntity
  8
0
  6
Continuous
 62
     7
370
    15
100
AcDbLine
 10
693.5950554971
 20
188.8610709475
 30
0.0
 11
713.59505505
 21
188.8610709475
 31
0.0
  0
LINE
  5
2DC
330
1F
100
AcDbEntity
  8
0
  6
Continuous
 62
     7
370
    15
100
AcDbLine
 10
693.5950554971
 20
192.5610590743
 30
0.0
 11
693.5950554971
 21
188.8610709475
 31
0.0
  0
LINE
  5
2DD
330
1F
100
AcDbEntity
  8
0
  6
Continuous
 62
     7
370
    15
100
AcDbLine
 10
613.5950572852
 20
192.5610590743
 30
0.0
 11
693.5950554971
 21
192.5610590743
 31
0.0
  0
LINE
  5
2DE
330
1F
100
AcDbEntity
  8
0
  6
Continuous
 62
     7
370
    15
100
AcDbLine
 10
613.5950572852
 20
188.8610709475
 30
0.0
 11
613.5950572852
 21
192.5610590743
 31
0.0
  0
LINE
  5
2DF
330
1F
100
AcDbEntity
  8
0
  6
Continuous
 62
     7
370
    15
100
AcDbLine
 10
593.5950614575
 20
188.8610709475
 30
0.0
 11
613.5950572852
 21
188.8610709475
 31
0.0
  0
LINE
  5
2E0
330
1F
100
AcDbEntity
  8
0
  6
Continuous
 62
     7
370
    15
100
AcDbLine
 10
593.5950614575
 20
192.5610590743
 30
0.0
 11
593.5950614575
 21
188.8610709475
 31
0.0
  0
LINE
  5
2E1
330
1F
100
AcDbEntity
  8
0
  6
Continuous
 62
     7
370
    15
100
AcDbLine
 10
578.5950608615
 20
192.5610590743
 30
0.0
 11
593.5950614575
 21
192.5610590743
 31
0.0
  0
LINE
  5
2E2
330
1F
100
AcDbEntity
  8
0
  6
Continuous
 62
     7
370
    15
100
AcDbLine
 10
613.5950572852
 20
224.5610643195
 30
0.0
 11
613.5950572852
 21
228.2610673474
 31
0.0
  0
LINE
  5
2E3
330
1F
100
AcDbEntity
  8
0
  6
Continuous
 62
     7
370
    15
100
AcDbLine
 10
613.5950572852
 20
228.2610673474
 30
0.0
 11
593.5950614575
 21
228.2610673474
 31
0.0
  0
LINE
  5
2E4
330
1F
100
AcDbEntity
  8
0
  6
Continuous
 62
     7
370
    15
100
AcDbLine
 10
593.5950614575
 20
228.2610673474
 30
0.0
 11
593.5950614575
 21
224.5610643195
 31
0.0
  0
LINE
  5
2E5
330
1F
100
AcDbEntity
  8
0
  6
Continuous
 62
     7
370
    15
100
AcDbLine
 10
593.5950614575
 20
224.5610643195
 30
0.0
 11
613.5950572852
 21
224.5610643195
 31
0.0
  0
LINE
  5
2E6
330
1F
100
AcDbEntity
  8
0
  6
Continuous
 62
     7
370
    15
100
AcDbLine
 10
613.5950572852
 20
428.8610655831
 30
0.0
 11
613.5950572852
 21
432.561068611
 31
0.0
  0
LINE
  5
2E7
330
1F
100
AcDbEntity
  8
0
  6
Continuous
 62
     7
370
    15
100
AcDbLine
 10
613.5950572852
 20
432.561068611
 30
0.0
 11
593.5950614575
 21
432.561068611
 31
0.0
  0
LINE
  5
2E8
330
1F
100
AcDbEntity
  8
0
  6
Continuous
 62
     7
370
    15
100
AcDbLine
 10
593.5950614575
 20
432.561068611
 30
0.0
 11
593.5950614575
 21
428.8610655831
 31
0.0
  0
LINE
  5
2E9
330
1F
100
AcDbEntity
  8
0
  6
Continuous
 62
     7
370
    15
100
AcDbLine
 10
593.5950614575
 20
428.8610655831
 30
0.0
 11
613.5950572852
 21
428.8610655831
 31
0.0
  0
LINE
  5
2EA
330
1F
100
AcDbEntity
  8
0
  6
Continuous
 62
     7
370
    15
100
AcDbLine
 10
117.4497426928
 20
245.665344198
 30
0.0
 11
117.4497426928
 21
241.9653411701
 31
0.0
  0
LINE
  5
2EB
330
1F
100
AcDbEntity
  8
0
  6
Continuous
 62
     7
370
    15
100
AcDbLine
 10
117.4497426928
 20
241.9653411701
 30
0.0
 11
137.4497422457
 21
241.9653411701
 31
0.0
  0
LINE
  5
2EC
330
1F
100
AcDbEntity
  8
0
  6
Continuous
 62
     7
370
    15
100
AcDbLine
 10
137.4497422457
 20
241.9653411701
 30
0.0
 11
137.4497422457
 21
245.665344198
 31
0.0
  0
LINE
  5
2ED
330
1F
100
AcDbEntity
  8
0
  6
Continuous
 62
     7
370
    15
100
AcDbLine
 10
137.4497422457
 20
245.665344198
 30
0.0
 11
117.4497426928
 21
245.665344198
 31
0.0
  0
LINE
  5
2EE
330
1F
100
AcDbEntity
  8
0
  6
Continuous
 62
     7
370
    15
100
AcDbLine
 10
137.4497422457
 20
41.3653429344
 30
0.0
 11
117.4497426928
 21
41.3653429344
 31
0.0
  0
LINE
  5
2EF
330
1F
100
AcDbEntity
  8
0
  6
Continuous
 62
     7
370
    15
100
AcDbLine
 10
117.4497426928
 20
41.3653429344
 30
0.0
 11
117.4497426928
 21
37.6653399065
 31
0.0
  0
LINE
  5
2F0
330
1F
100
AcDbEntity
  8
0
  6
Continuous
 62
     7
370
    15
100
AcDbLine
 10
117.4497426928
 20
37.6653399065
 30
0.0
 11
137.4497422457
 21
37.6653399065
 31
0.0
  0
LINE
  5
2F1
330
1F
100
AcDbEntity
  8
0
  6
Continuous
 62
     7
370
    15
100
AcDbLine
 10
137.4497422457
 20
37.6653399065
 30
0.0
 11
137.4497422457
 21
41.3653429344
 31
0.0
  0
LINE
  5
2F2
330
1F
100
AcDbEntity
  8
0
  6
Continuous
 62
     7
370
    15
100
AcDbLine
 10
2.4497480572
 20
277.6653494432
 30
0.0
 11
2.4497480572
 21
5.6653346613
 31
0.0
  0
LINE
  5
2F3
330
1F
100
AcDbEntity
  8
0
  6
Continuous
 62
     7
370
    15
100
AcDbLine
 10
17.4497486532
 20
277.6653494432
 30
0.0
 11
2.4497480572
 21
277.6653494432
 31
0.0
  0
LINE
  5
2F4
330
1F
100
AcDbEntity
  8
0
  6
Continuous
 62
     7
370
    15
100
AcDbLine
 10
17.4497486532
 20
281.36533757
 30
0.0
 11
17.4497486532
 21
277.6653494432
 31
0.0
  0
LINE
  5
2F5
330
1F
100
AcDbEntity
  8
0
  6
Continuous
 62
     7
370
    15
100
AcDbLine
 10
37.4497444809
 20
281.36533757
 30
0.0
 11
17.4497486532
 21
281.36533757
 31
0.0
  0
LINE
  5
2F6
330
1F
100
AcDbEntity
  8
0
  6
Continuous
 62
     7
370
    15
100
AcDbLine
 10
37.4497444809
 20
277.6653494432
 30
0.0
 11
37.4497444809
 21
281.36533757
 31
0.0
  0
LINE
  5
2F7
330
1F
100
AcDbEntity
  8
0
  6
Continuous
 62
     7
370
    15
100
AcDbLine
 10
117.4497426928
 20
277.6653494432
 30
0.0
 11
37.4497444809
 21
277.6653494432
 31
0.0
  0
LINE
  5
2F8
330
1F
100
AcDbEntity
  8
0
  6
Continuous
 62
     7
370
    15
100
AcDbLine
 10
117.4497426928
 20
281.36533757
 30
0.0
 11
117.4497426928
 21
277.6653494432
 31
0.0
  0
LINE
  5
2F9
330
1F
100
AcDbEntity
  8
0
  6
Continuous
 62
     7
370
    15
100
AcDbLine
 10
137.4497422457
 20
281.36533757
 30
0.0
 11
117.4497426928
 21
281.36533757
 31
0.0
  0
LINE
  5
2FA
330
1F
100
AcDbEntity
  8
0
  6
Continuous
 62
     7
370
    15
100
AcDbLine
 10
137.4497422457
 20
277.6653494432
 30
0.0
 11
137.4497422457
 21
281.36533757
 31
0.0
  0
LINE
  5
2FB
330
1F
100
AcDbEntity
  8
0
  6
Continuous
 62
     7
370
    15
100
AcDbLine
 10
156.1497421444
 20
277.6653494432
 30
0.0
 11
137.4497422457
 21
277.6653494432
 31
0.0
  0
LINE
  5
2FC
330
1F
100
AcDbEntity
  8
0
  6
Continuous
 62
     7
370
    15
100
AcDbLine
 10
156.1497421444
 20
267.6653440788
 30
0.0
 11
156.1497421444
 21
277.6653494432
 31
0.0
  0
LINE
  5
2FD
330
1F
100
AcDbEntity
  8
0
  6
Continuous
 62
     7
370
    15
100
AcDbLine
 10
152.4497421433
 20
267.6653440788
 30
0.0
 11
156.1497421444
 21
267.6653440788
 31
0.0
  0
LINE
  5
2FE
330
1F
100
AcDbEntity
  8
0
  6
Continuous
 62
     7
370
    15
100
AcDbLine
 10
152.4497421433
 20
191.6653427973
 30
0.0
 11
152.4497421433
 21
267.6653440788
 31
0.0
  0
LINE
  5
2FF
330
1F
100
AcDbEntity
  8
0
  6
Continuous
 62
     7
370
    15
100
AcDbLine
 10
156.1497421444
 20
191.6653427973
 30
0.0
 11
152.4497421433
 21
191.6653427973
 31
0.0
  0
LINE
  5
300
330
1F
100
AcDbEntity
  8
0
  6
Continuous
 62
     7
370
    15
100
AcDbLine
 10
156.1497421444
 20
91.6653413072
 30
0.0
 11
156.1497421444
 21
191.6653427973
 31
0.0
  0
LINE
  5
301
330
1F
100
AcDbEntity
  8
0
  6
Continuous
 62
     7
370
    15
100
AcDbLine
 10
152.4497421433
 20
91.6653413072
 30
0.0
 11
156.1497421444
 21
91.6653413072
 31
0.0
  0
LINE
  5
302
330
1F
100
AcDbEntity
  8
0
  6
Continuous
 62
     7
370
    15
100
AcDbLine
 10
152.4497421433
 20
15.6653400257
 30
0.0
 11
152.4497421433
 21
91.6653413072
 31
0.0
  0
LINE
  5
303
330
1F
100
AcDbEntity
  8
0
  6
Continuous
 62
     7
370
    15
100
AcDbLine
 10
156.1497421444
 20
15.6653400257
 30
0.0
 11
152.4497421433
 21
15.6653400257
 31
0.0
  0
LINE
  5
304
330
1F
100
AcDbEntity
  8
0
  6
Continuous
 62
     7
370
    15
100
AcDbLine
 10
156.1497421444
 20
5.6653346613
 30
0.0
 11
156.1497421444
 21
15.6653400257
 31
0.0
  0
LINE
  5
305
330
1F
100
AcDbEntity
  8
0
  6
Continuous
 62
     7
370
    15
100
AcDbLine
 10
137.4497422457
 20
5.6653346613
 30
0.0
 11
156.1497421444
 21
5.6653346613
 31
0.0
  0
LINE
  5
306
330
1F
100
AcDbEntity
  8
0
  6
Continuous
 62
     7
370
    15
100
AcDbLine
 10
137.4497422457
 20
1.9653465345
 30
0.0
 11
137.4497422457
 21
5.6653346613
 31
0.0
  0
LINE
  5
307
330
1F
100
AcDbEntity
  8
0
  6
Continuous
 62
     7
370
    15
100
AcDbLine
 10
117.4497426928
 20
1.9653465345
 30
0.0
 11
137.4497422457
 21
1.9653465345
 31
0.0
  0
LINE
  5
308
330
1F
100
AcDbEntity
  8
0
  6
Continuous
 62
     7
370
    15
100
AcDbLine
 10
117.4497426928
 20
5.6653346613
 30
0.0
 11
117.4497426928
 21
1.9653465345
 31
0.0
  0
LINE
  5
309
330
1F
100
AcDbEntity
  8
0
  6
Continuous
 62
     7
370
    15
100
AcDbLine
 10
37.4497444809
 20
5.6653346613
 30
0.0
 11
117.4497426928
 21
5.6653346613
 31
0.0
  0
LINE
  5
30A
330
1F
100
AcDbEntity
  8
0
  6
Continuous
 62
     7
370
    15
100
AcDbLine
 10
37.4497444809
 20
1.9653465345
 30
0.0
 11
37.4497444809
 21
5.6653346613
 31
0.0
  0
LINE
  5
30B
330
1F
100
AcDbEntity
  8
0
  6
Continuous
 62
     7
370
    15
100
AcDbLine
 10
17.4497486532
 20
1.9653465345
 30
0.0
 11
37.4497444809
 21
1.9653465345
 31
0.0
  0
LINE
  5
30C
330
1F
100
AcDbEntity
  8
0
  6
Continuous
 62
     7
370
    15
100
AcDbLine
 10
17.4497486532
 20
5.6653346613
 30
0.0
 11
17.4497486532
 21
1.9653465345
 31
0.0
  0
LINE
  5
30D
330
1F
100
AcDbEntity
  8
0
  6
Continuous
 62
     7
370
    15
100
AcDbLine
 10
2.4497480572
 20
5.6653346613
 30
0.0
 11
17.4497486532
 21
5.6653346613
 31
0.0
  0
LINE
  5
30E
330
1F
100
AcDbEntity
  8
0
  6
Continuous
 62
     7
370
    15
100
AcDbLine
 10
37.4497444809
 20
37.6653399065
 30
0.0
 11
37.4497444809
 21
41.3653429344
 31
0.0
  0
LINE
  5
30F
330
1F
100
AcDbEntity
  8
0
  6
Continuous
 62
     7
370
    15
100
AcDbLine
 10
37.4497444809
 20
41.3653429344
 30
0.0
 11
17.4497486532
 21
41.3653429344
 31
0.0
  0
LINE
  5
310
330
1F
100
AcDbEntity
  8
0
  6
Continuous
 62
     7
370
    15
100
AcDbLine
 10
17.4497486532
 20
41.3653429344
 30
0.0
 11
17.4497486532
 21
37.6653399065
 31
0.0
  0
LINE
  5
311
330
1F
100
AcDbEntity
  8
0
  6
Continuous
 62
     7
370
    15
100
AcDbLine
 10
17.4497486532
 20
37.6653399065
 30
0.0
 11
37.4497444809
 21
37.6653399065
 31
0.0
  0
LINE
  5
312
330
1F
100
AcDbEntity
  8
0
  6
Continuous
 62
     7
370
    15
100
AcDbLine
 10
37.4497444809
 20
241.9653411701
 30
0.0
 11
37.4497444809
 21
245.665344198
 31
0.0
  0
LINE
  5
313
330
1F
100
AcDbEntity
  8
0
  6
Continuous
 62
     7
370
    15
100
AcDbLine
 10
37.4497444809
 20
245.665344198
 30
0.0
 11
17.4497486532
 21
245.665344198
 31
0.0
  0
LINE
  5
314
330
1F
100
AcDbEntity
  8
0
  6
Continuous
 62
     7
370
    15
100
AcDbLine
 10
17.4497486532
 20
245.665344198
 30
0.0
 11
17.4497486532
 21
241.9653411701
 31
0.0
  0
LINE
  5
315
330
1F
100
AcDbEntity
  8
0
  6
Continuous
 62
     7
370
    15
100
AcDbLine
 10
17.4497486532
 20
241.9653411701
 30
0.0
 11
37.4497444809
 21
241.9653411701
 31
0.0
  0
LINE
  5
316
330
1F
100
AcDbEntity
  8
0
  6
Continuous
 62
     7
370
    15
100
AcDbLine
 10
282.3233952547
 20
583.4090233665
 30
0.0
 11
278.6234071279
 21
583.4090233665
 31
0.0
  0
LINE
  5
317
330
1F
100
AcDbEntity
  8
0
  6
Continuous
 62
     7
370
    15
100
AcDbLine
 10
282.3233952547
 20
563.4090200883
 30
0.0
 11
282.3233952547
 21
583.4090233665
 31
0.0
  0
LINE
  5
318
330
1F
100
AcDbEntity
  8
0
  6
Continuous
 62
     7
370
    15
100
AcDbLine
 10
278.6234071279
 20
563.4090200883
 30
0.0
 11
282.3233952547
 21
563.4090200883
 31
0.0
  0
LINE
  5
319
330
1F
100
AcDbEntity
  8
0
  6
Continuous
 62
     7
370
    15
100
AcDbLine
 10
278.6234071279
 20
483.4090218764
 30
0.0
 11
278.6234071279
 21
563.4090200883
 31
0.0
  0
LINE
  5
31A
330
1F
100
AcDbEntity
  8
0
  6
Continuous
 62
     7
370
    15
100
AcDbLine
 10
282.3233952547
 20
483.4090218764
 30
0.0
 11
278.6234071279
 21
483.4090218764
 31
0.0
  0
LINE
  5
31B
330
1F
100
AcDbEntity
  8
0
  6
Continuous
 62
     7
370
    15
100
AcDbLine
 10
282.3233952547
 20
463.4090260487
 30
0.0
 11
282.3233952547
 21
483.4090218764
 31
0.0
  0
LINE
  5
31C
330
1F
100
AcDbEntity
  8
0
  6
Continuous
 62
     7
370
    15
100
AcDbLine
 10
278.6234071279
 20
463.4090260487
 30
0.0
 11
282.3233952547
 21
463.4090260487
 31
0.0
  0
LINE
  5
31D
330
1F
100
AcDbEntity
  8
0
  6
Continuous
 62
     7
370
    15
100
AcDbLine
 10
278.6234071279
 20
458.4090308171
 30
0.0
 11
278.6234071279
 21
463.4090260487
 31
0.0
  0
LINE
  5
31E
330
1F
100
AcDbEntity
  8
0
  6
Continuous
 62
     7
370
    15
100
AcDbLine
 10
273.6233969951
 20
458.4090308171
 30
0.0
 11
278.6234071279
 21
458.4090308171
 31
0.0
  0
ARC
  5
31F
330
1F
100
AcDbEntity
  8
0
  6
Continuous
 62
     7
370
    15
100
AcDbCircle
 10
273.6233997369
 20
483.4090234738
 30
0.0
 40
25.00000000000006
100
AcDbArc
 50
186.1223052931
 51
270.0
  0
ARC
  5
320
330
1F
100
AcDbEntity
  8
0
  6
Continuous
 62
     7
370
    15
100
AcDbCircle
 10
142.6233997369
 20
469.3575791238
 30
0.0
 40
106.7514443500425
100
AcDbArc
 50
6.1223052931
 51
173.8776947069
  0
ARC
  5
321
330
1F
100
AcDbEntity
  8
0
  6
Continuous
 62
     7
370
    15
100
AcDbCircle
 10
11.6233997369
 20
483.4090234738
 30
0.0
 40
25.0
100
AcDbArc
 50
270.0
 51
353.8776947069
  0
LINE
  5
322
330
1F
100
AcDbEntity
  8
0
  6
Continuous
 62
     7
370
    15
100
AcDbLine
 10
6.623392346
 20
458.4090308171
 30
0.0
 11
11.6234024788
 21
458.4090308171
 31
0.0
  0
LINE
  5
323
330
1F
100
AcDbEntity
  8
0
  6
Continuous
 62
     7
370
    15
100
AcDbLine
 10
6.623392346
 20
463.4090260487
 30
0.0
 11
6.623392346
 21
458.4090308171
 31
0.0
  0
LINE
  5
324
330
1F
100
AcDbEntity
  8
0
  6
Continuous
 62
     7
370
    15
100
AcDbLine
 10
2.9234042192
 20
463.4090260487
 30
0.0
 11
6.623392346
 21
463.4090260487
 31
0.0
  0
LINE
  5
325
330
1F
100
AcDbEntity
  8
0
  6
Continuous
 62
     7
370
    15
100
AcDbLine
 10
2.9234042192
 20
483.4090218764
 30
0.0
 11
2.9234042192
 21
463.4090260487
 31
0.0
  0
LINE
  5
326
330
1F
100
AcDbEntity
  8
0
  6
Continuous
 62
     7
370
    15
100
AcDbLine
 10
6.623392346
 20
483.4090218764
 30
0.0
 11
2.9234042192
 21
483.4090218764
 31
0.0
  0
LINE
  5
327
330
1F
100
AcDbEntity
  8
0
  6
Continuous
 62
     7
370
    15
100
AcDbLine
 10
6.623392346
 20
563.4090200883
 30
0.0
 11
6.623392346
 21
483.4090218764
 31
0.0
  0
LINE
  5
328
330
1F
100
AcDbEntity
  8
0
  6
Continuous
 62
     7
370
    15
100
AcDbLine
 10
2.9234042192
 20
563.4090200883
 30
0.0
 11
6.623392346
 21
563.4090200883
 31
0.0
  0
LINE
  5
329
330
1F
100
AcDbEntity
  8
0
  6
Continuous
 62
     7
370
    15
100
AcDbLine
 10
2.9234042192
 20
583.4090233665
 30
0.0
 11
2.9234042192
 21
563.4090200883
 31
0.0
  0
LINE
  5
32A
330
1F
100
AcDbEntity
  8
0
  6
Continuous
 62
     7
370
    15
100
AcDbLine
 10
6.623392346
 20
583.4090233665
 30
0.0
 11
2.9234042192
 21
583.4090233665
 31
0.0
  0
LINE
  5
32B
330
1F
100
AcDbEntity
  8
0
  6
Continuous
 62
     7
370
    15
100
AcDbLine
 10
6.623392346
 20
626.1090234738
 30
0.0
 11
6.623392346
 21
583.4090233665
 31
0.0
  0
LINE
  5
32C
330
1F
100
AcDbEntity
  8
0
  6
Continuous
 62
     7
370
    15
100
AcDbLine
 10
36.6234009886
 20
626.1090234738
 30
0.0
 11
6.623392346
 21
626.1090234738
 31
0.0
  0
LINE
  5
32D
330
1F
100
AcDbEntity
  8
0
  6
Continuous
 62
     7
370
    15
100
AcDbLine
 10
36.6234009886
 20
622.4090234727
 30
0.0
 11
36.6234009886
 21
626.1090234738
 31
0.0
  0
LINE
  5
32E
330
1F
100
AcDbEntity
  8
0
  6
Continuous
 62
     7
370
    15
100
AcDbLine
 10
56.6233968163
 20
622.4090234727
 30
0.0
 11
36.6234009886
 21
622.4090234727
 31
0.0
  0
LINE
  5
32F
330
1F
100
AcDbEntity
  8
0
  6
Continuous
 62
     7
370
    15
100
AcDbLine
 10
56.6233968163
 20
626.1090234738
 30
0.0
 11
56.6233968163
 21
622.4090234727
 31
0.0
  0
LINE
  5
330
330
1F
100
AcDbEntity
  8
0
  6
Continuous
 62
     7
370
    15
100
AcDbLine
 10
132.6233999605
 20
626.1090234738
 30
0.0
 11
56.6233968163
 21
626.1090234738
 31
0.0
  0
LINE
  5
331
330
1F
100
AcDbEntity
  8
0
  6
Continuous
 62
     7
370
    15
100
AcDbLine
 10
132.6233999605
 20
622.4090234727
 30
0.0
 11
132.6233999605
 21
626.1090234738
 31
0.0
  0
LINE
  5
332
330
1F
100
AcDbEntity
  8
0
  6
Continuous
 62
     7
370
    15
100
AcDbLine
 10
152.6233995134
 20
622.4090234727
 30
0.0
 11
132.6233999605
 21
622.4090234727
 31
0.0
  0
LINE
  5
333
330
1F
100
AcDbEntity
  8
0
  6
Continuous
 62
     7
370
    15
100
AcDbLine
 10
152.6233995134
 20
626.1090234738
 30
0.0
 11
152.6233995134
 21
622.4090234727
 31
0.0
  0
LINE
  5
334
330
1F
100
AcDbEntity
  8
0
  6
Continuous
 62
     7
370
    15
100
AcDbLine
 10
228.6234026576
 20
626.1090234738
 30
0.0
 11
152.6233995134
 21
626.1090234738
 31
0.0
  0
LINE
  5
335
330
1F
100
AcDbEntity
  8
0
  6
Continuous
 62
     7
370
    15
100
AcDbLine
 10
228.6234026576
 20
622.4090234727
 30
0.0
 11
228.6234026576
 21
626.1090234738
 31
0.0
  0
LINE
  5
336
330
1F
100
AcDbEntity
  8
0
  6
Continuous
 62
     7
370
    15
100
AcDbLine
 10
248.6233984853
 20
622.4090234727
 30
0.0
 11
228.6234026576
 21
622.4090234727
 31
0.0
  0
LINE
  5
337
330
1F
100
AcDbEntity
  8
0
  6
Continuous
 62
     7
370
    15
100
AcDbLine
 10
248.6233984853
 20
626.1090234738
 30
0.0
 11
248.6233984853
 21
622.4090234727
 31
0.0
  0
LINE
  5
338
330
1F
100
AcDbEntity
  8
0
  6
Continuous
 62
     7
370
    15
100
AcDbLine
 10
278.6234071279
 20
626.1090234738
 30
0.0
 11
248.6233984853
 21
626.1090234738
 31
0.0
  0
LINE
  5
339
330
1F
100
AcDbEntity
  8
0
  6
Continuous
 62
     7
370
    15
100
AcDbLine
 10
278.6234071279
 20
583.4090233665
 30
0.0
 11
278.6234071279
 21
626.1090234738
 31
0.0
  0
LINE
  5
33A
330
1F
100
AcDbEntity
  8
0
  6
Continuous
 62
     7
370
    15
100
AcDbLine
 10
2.4245764357
 20
329.7290411313
 30
0.0
 11
6.1245645625
 21
329.7290411313
 31
0.0
  0
LINE
  5
33B
330
1F
100
AcDbEntity
  8
0
  6
Continuous
 62
     7
370
    15
100
AcDbLine
 10
2.4245764357
 20
349.7290444096
 30
0.0
 11
2.4245764357
 21
329.7290411313
 31
0.0
  0
LINE
  5
33C
330
1F
100
AcDbEntity
  8
0
  6
Continuous
 62
     7
370
    15
100
AcDbLine
 10
6.1245645625
 20
349.7290444096
 30
0.0
 11
2.4245764357
 21
349.7290444096
 31
0.0
  0
LINE
  5
33D
330
1F
100
AcDbEntity
  8
0
  6
Continuous
 62
     7
370
    15
100
AcDbLine
 10
6.1245645625
 20
429.7290426214
 30
0.0
 11
6.1245645625
 21
349.7290444096
 31
0.0
  0
LINE
  5
33E
330
1F
100
AcDbEntity
  8
0
  6
Continuous
 62
     7
370
    15
100
AcDbLine
 10
2.4245764357
 20
429.7290426214
 30
0.0
 11
6.1245645625
 21
429.7290426214
 31
0.0
  0
LINE
  5
33F
330
1F
100
AcDbEntity
  8
0
  6
Continuous
 62
     7
370
    15
100
AcDbLine
 10
2.4245764357
 20
449.7290384491
 30
0.0
 11
2.4245764357
 21
429.7290426214
 31
0.0
  0
LINE
  5
340
330
1F
100
AcDbEntity
  8
0
  6
Continuous
 62
     7
370
    15
100
AcDbLine
 10
6.1245645625
 20
449.7290384491
 30
0.0
 11
2.4245764357
 21
449.7290384491
 31
0.0
  0
LINE
  5
341
330
1F
100
AcDbEntity
  8
0
  6
Continuous
 62
     7
370
    15
100
AcDbLine
 10
6.1245645625
 20
454.7290336807
 30
0.0
 11
6.1245645625
 21
449.7290384491
 31
0.0
  0
LINE
  5
342
330
1F
100
AcDbEntity
  8
0
  6
Continuous
 62
     7
370
    15
100
AcDbLine
 10
11.1245746953
 20
454.7290336807
 30
0.0
 11
6.1245645625
 21
454.7290336807
 31
0.0
  0
ARC
  5
343
330
1F
100
AcDbEntity
  8
0
  6
Continuous
 62
     7
370
    15
100
AcDbCircle
 10
11.1245719535
 20
429.729041024
 30
0.0
 40
25.0
100
AcDbArc
 50
6.1223052931
 51
90.0
  0
ARC
  5
344
330
1F
100
AcDbEntity
  8
0
  6
Continuous
 62
     7
370
    15
100
AcDbCircle
 10
142.1245719535
 20
443.7804853741
 30
0.0
 40
106.7514443500425
100
AcDbArc
 50
186.1223052931
 51
353.8776947069
  0
ARC
  5
345
330
1F
100
AcDbEntity
  8
0
  6
Continuous
 62
     7
370
    15
100
AcDbCircle
 10
273.1245719535
 20
429.729041024
 30
0.0
 40
24.99999999999999
100
AcDbArc
 50
90.0
 51
173.8776947069
  0
LINE
  5
346
330
1F
100
AcDbEntity
  8
0
  6
Continuous
 62
     7
370
    15
100
AcDbLine
 10
278.1245793445
 20
454.7290336807
 30
0.0
 11
273.1245692117
 21
454.7290336807
 31
0.0
  0
LINE
  5
347
330
1F
100
AcDbEntity
  8
0
  6
Continuous
 62
     7
370
    15
100
AcDbLine
 10
278.1245793445
 20
449.7290384491
 30
0.0
 11
278.1245793445
 21
454.7290336807
 31
0.0
  0
LINE
  5
348
330
1F
100
AcDbEntity
  8
0
  6
Continuous
 62
     7
370
    15
100
AcDbLine
 10
281.8245674712
 20
449.7290384491
 30
0.0
 11
278.1245793445
 21
449.7290384491
 31
0.0
  0
LINE
  5
349
330
1F
100
AcDbEntity
  8
0
  6
Continuous
 62
     7
370
    15
100
AcDbLine
 10
281.8245674712
 20
429.7290426214
 30
0.0
 11
281.8245674712
 21
449.7290384491
 31
0.0
  0
LINE
  5
34A
330
1F
100
AcDbEntity
  8
0
  6
Continuous
 62
     7
370
    15
100
AcDbLine
 10
278.1245793445
 20
429.7290426214
 30
0.0
 11
281.8245674712
 21
429.7290426214
 31
0.0
  0
LINE
  5
34B
330
1F
100
AcDbEntity
  8
0
  6
Continuous
 62
     7
370
    15
100
AcDbLine
 10
278.1245793445
 20
349.7290444096
 30
0.0
 11
278.1245793445
 21
429.7290426214
 31
0.0
  0
LINE
  5
34C
330
1F
100
AcDbEntity
  8
0
  6
Continuous
 62
     7
370
    15
100
AcDbLine
 10
281.8245674712
 20
349.7290444096
 30
0.0
 11
278.1245793445
 21
349.7290444096
 31
0.0
  0
LINE
  5
34D
330
1F
100
AcDbEntity
  8
0
  6
Continuous
 62
     7
370
    15
100
AcDbLine
 10
281.8245674712
 20
329.7290411313
 30
0.0
 11
281.8245674712
 21
349.7290444096
 31
0.0
  0
LINE
  5
34E
330
1F
100
AcDbEntity
  8
0
  6
Continuous
 62
     7
370
    15
100
AcDbLine
 10
278.1245793445
 20
329.7290411313
 30
0.0
 11
281.8245674712
 21
329.7290411313
 31
0.0
  0
LINE
  5
34F
330
1F
100
AcDbEntity
  8
0
  6
Continuous
 62
     7
370
    15
100
AcDbLine
 10
278.1245793445
 20
287.029041024
 30
0.0
 11
278.1245793445
 21
329.7290411313
 31
0.0
  0
LINE
  5
350
330
1F
100
AcDbEntity
  8
0
  6
Continuous
 62
     7
370
    15
100
AcDbLine
 10
248.1245707018
 20
287.029041024
 30
0.0
 11
278.1245793445
 21
287.029041024
 31
0.0
  0
LINE
  5
351
330
1F
100
AcDbEntity
  8
0
  6
Continuous
 62
     7
370
    15
100
AcDbLine
 10
248.1245707018
 20
290.7290410251
 30
0.0
 11
248.1245707018
 21
287.029041024
 31
0.0
  0
LINE
  5
352
330
1F
100
AcDbEntity
  8
0
  6
Continuous
 62
     7
370
    15
100
AcDbLine
 10
228.1245748741
 20
290.7290410251
 30
0.0
 11
248.1245707018
 21
290.7290410251
 31
0.0
  0
LINE
  5
353
330
1F
100
AcDbEntity
  8
0
  6
Continuous
 62
     7
370
    15
100
AcDbLine
 10
228.1245748741
 20
287.029041024
 30
0.0
 11
228.1245748741
 21
290.7290410251
 31
0.0
  0
LINE
  5
354
330
1F
100
AcDbEntity
  8
0
  6
Continuous
 62
     7
370
    15
100
AcDbLine
 10
152.12457173
 20
287.029041024
 30
0.0
 11
228.1245748741
 21
287.029041024
 31
0.0
  0
LINE
  5
355
330
1F
100
AcDbEntity
  8
0
  6
Continuous
 62
     7
370
    15
100
AcDbLine
 10
152.12457173
 20
290.7290410251
 30
0.0
 11
152.12457173
 21
287.029041024
 31
0.0
  0
LINE
  5
356
330
1F
100
AcDbEntity
  8
0
  6
Continuous
 62
     7
370
    15
100
AcDbLine
 10
132.124572177
 20
290.7290410251
 30
0.0
 11
152.12457173
 21
290.7290410251
 31
0.0
  0
LINE
  5
357
330
1F
100
AcDbEntity
  8
0
  6
Continuous
 62
     7
370
    15
100
AcDbLine
 10
132.124572177
 20
287.029041024
 30
0.0
 11
132.124572177
 21
290.7290410251
 31
0.0
  0
LINE
  5
358
330
1F
100
AcDbEntity
  8
0
  6
Continuous
 62
     7
370
    15
100
AcDbLine
 10
56.1245690328
 20
287.029041024
 30
0.0
 11
132.124572177
 21
287.029041024
 31
0.0
  0
LINE
  5
359
330
1F
100
AcDbEntity
  8
0
  6
Continuous
 62
     7
370
    15
100
AcDbLine
 10
56.1245690328
 20
290.7290410251
 30
0.0
 11
56.1245690328
 21
287.029041024
 31
0.0
  0
LINE
  5
35A
330
1F
100
AcDbEntity
  8
0
  6
Continuous
 62
     7
370
    15
100
AcDbLine
 10
36.1245732052
 20
290.7290410251
 30
0.0
 11
56.1245690328
 21
290.7290410251
 31
0.0
  0
LINE
  5
35B
330
1F
100
AcDbEntity
  8
0
  6
Continuous
 62
     7
370
    15
100
AcDbLine
 10
36.1245732052
 20
287.029041024
 30
0.0
 11
36.1245732052
 21
290.7290410251
 31
0.0
  0
LINE
  5
35C
330
1F
100
AcDbEntity
  8
0
  6
Continuous
 62
     7
370
    15
100
AcDbLine
 10
6.1245645625
 20
287.029041024
 30
0.0
 11
36.1245732052
 21
287.029041024
 31
0.0
  0
LINE
  5
35D
330
1F
100
AcDbEntity
  8
0
  6
Continuous
 62
     7
370
    15
100
AcDbLine
 10
6.1245645625
 20
329.7290411313
 30
0.0
 11
6.1245645625
 21
287.029041024
 31
0.0
  0
ENDSEC
  0
SECTION
  2
OBJECTS
  0
DICTIONARY
  5
C
330
0
100
AcDbDictionary
281
     1
  3
ACAD_GROUP
350
D
  3
ACAD_LAYOUT
350
1A
  3
ACAD_MLINESTYLE
350
17
  3
ACAD_PLOTSETTINGS
350
19
  3
ACAD_PLOTSTYLENAME
350
E
  0
DICTIONARY
  5
D
102
{ACAD_REACTORS
330
C
102
}
330
C
100
AcDbDictionary
281
     1
  0
DICTIONARY
  5
1A
102
{ACAD_REACTORS
330
C
102
}
330
C
100
AcDbDictionary
281
     1
  3
Layout1
350
1E
  3
Layout2
350
26
  3
Model
350
22
  0
DICTIONARY
  5
17
102
{ACAD_REACTORS
330
C
102
}
330
C
100
AcDbDictionary
281
     1
  3
Standard
350
18
  0
DICTIONARY
  5
19
102
{ACAD_REACTORS
330
C
102
}
330
C
100
AcDbDictionary
281
     1
  0
ACDBDICTIONARYWDFLT
  5
E
102
{ACAD_REACTORS
330
C
102
}
330
C
100
AcDbDictionary
281
     1
  3
Normal
350
F
100
AcDbDictionaryWithDefault
340
F
  0
LAYOUT
  5
1E
102
{ACAD_REACTORS
330
1A
102
}
330
1A
100
AcDbPlotSettings
  1

  2
none_device
  4

  6

 40
0.0
 41
0.0
 42
0.0
 43
0.0
 44
0.0
 45
0.0
 46
0.0
 47
0.0
 48
0.0
 49
0.0
140
0.0
141
0.0
142
1.0
143
1.0
 70
   688
 72
     0
 73
     0
 74
     5
  7

 75
    16
147
1.0
148
0.0
149
0.0
100
AcDbLayout
  1
Layout1
 70
     1
 71
     1
 10
0.0
 20
0.0
 11
420.0
 21
297.0
 12
0.0
 22
0.0
 32
0.0
 14
1.0000000000E+20
 24
1.0000000000E+20
 34
1.0000000000E+20
 15
-1.0000000000E+20
 25
-1.0000000000E+20
 35
-1.0000000000E+20
146
0.0
 13
0.0
 23
0.0
 33
0.0
 16
1.0
 26
0.0
 36
0.0
 17
0.0
 27
1.0
 37
0.0
 76
     0
330
1B
  0
LAYOUT
  5
26
102
{ACAD_REACTORS
330
1A
102
}
330
1A
100
AcDbPlotSettings
  1

  2
none_device
  4

  6

 40
0.0
 41
0.0
 42
0.0
 43
0.0
 44
0.0
 45
0.0
 46
0.0
 47
0.0
 48
0.0
 49
0.0
140
0.0
141
0.0
142
1.0
143
1.0
 70
   688
 72
     0
 73
     0
 74
     5
  7

 75
    16
147
1.0
148
0.0
149
0.0
100
AcDbLayout
  1
Layout2
 70
     1
 71
     2
 10
0.0
 20
0.0
 11
0.0
 21
0.0
 12
0.0
 22
0.0
 32
0.0
 14
0.0
 24
0.0
 34
0.0
 15
0.0
 25
0.0
 35
0.0
146
0.0
 13
0.0
 23
0.0
 33
0.0
 16
1.0
 26
0.0
 36
0.0
 17
0.0
 27
1.0
 37
0.0
 76
     0
330
23
  0
LAYOUT
  5
22
102
{ACAD_REACTORS
330
1A
102
}
330
1A
100
AcDbPlotSettings
  1

  2
none_device
  4

  6

 40
0.0
 41
0.0
 42
0.0
 43
0.0
 44
0.0
 45
0.0
 46
0.0
 47
0.0
 48
0.0
 49
0.0
140
0.0
141
0.0
142
1.0
143
1.0
 70
  1712
 72
     0
 73
     0
 74
     0
  7

 75
     0
147
1.0
148
0.0
149
0.0
100
AcDbLayout
  1
Model
 70
     1
 71
     0
 10
0.0
 20
0.0
 11
745.0
 21
630.0
 12
0.0
 22
0.0
 32
0.0
 14
0.0
 24
0.0
 34
0.0
 15
745.0
 25
630.0
 35
0.0
146
0.0
 13
0.0
 23
0.0
 33
0.0
 16
1.0
 26
0.0
 36
0.0
 17
0.0
 27
1.0
 37
0.0
 76
     0
330
1F
331
29
  0
MLINESTYLE
  5
18
102
{ACAD_REACTORS
330
17
102
}
330
17
100
AcDbMlineStyle
  2
Standard
 70
     0
  3

 62
   256
 51
90.0
 52
90.0
 71
     2
 49
0.5
 62
   256
  6
BYLAYER
 49
-0.5
 62
   256
  6
BYLAYER
  0
ACDBPLACEHOLDER
  5
F
102
{ACAD_REACTORS
330
E
102
}
330
E
  0
ENDSEC
  0
EOF
